Song name
# A B C D E F G H I J K L M N O P Q R S T U V W X Y Z

Morning Musume - Shouganai Yume Oibito tab

Shouganai Yume Oibito, by manOutOfTime (neil_willey@hotmail.com)
Key: F#

Intro
D#m	   C#		Bbm		D#m x2

Riff
-14--13h14r13---------------------13v-|-14h16-13-13h14r13-----------------|
---------------14r12-----14-16-14-----|-------------------14-12-----------|
---------------------15v--------------|-------------------------15--------|
--------------------------------------|-----------------------------------|
--------------------------------------|-----------------------------------|
--------------------------------------|-----------------------------------|

----------13-14-16--|-13h14r13--------------------13-14-16v-|-------------|
-14-16-14-----------|----------14r12-----14-16-14-----------|-------------|
--------------------|----------------15v--------------------|-------------|
--------------------|---------------------------------------|-------------|
--------------------|---------------------------------------|-------------|
--------------------|---------------------------------------|-------------|

-13---------------131416-19-18-16-14h16r14v-|-----------------------------|
----16-14-12--------------------------------|-----------------------------|
-------------15-----------------------------|-----------------------------|
--------------------------------------------|-----------------------------|
--------------------------------------------|-----------------------------|
--------------------------------------------|-----------------------------|

Verse

D#m	   C#		Bbm		D#m
kore ijou nagaku isshou ni iru to atashi mo dame ni narisou
G#m	   C#		Bbm	    	D#m
anata no yume ga kanau nante itsu na no
D#m	   C#		Bbm						D#m
maru de shounen ne itsumo KIRAKIRA shitai koto bakari shiteru
G#m	    C#		 Bbm
sono me o suki ni natta ano hi

Bridge

D#m	   C#	    Bbm  B	   C#        D#m
jikan ga sugita koto anata wakatteru no
B	     C#       Bbm		   D#m-C#
aa gakusei no kibun de iru no ne

Chorus

     F#	     C#   D#m
nani mo shiranai anata no
    Bbm	   G#m		   C#	  Bbm	    C#
negao o miteru to omoi de to namida ga afureteku
     F#	   C#	    D#m
kore de saigo to nandomo
    Bbm	      G#m		    C#  Bbm	     C#
atama o yogiru kedo shiroi ha no egao o omoi dasu
    D#m	C# Bbm D#m
shouganai yume oibito

Intro Riff
D#m	   C#		Bbm		D#m x2

Verse

D#m	    C#		Bbm					D#m
sore demo konya de hontou ni saigo kokoro ni chikatta keredo
G#m	   C#			   Bbm	  D#m
sonna hi ni kagitte yasashiku suru no ne
D#m	   C#		Bbm				          D#m
anata wakaru deshou genjitsu to iu ooki na kabe ga aru no o
G#m	   C#		        Bbm
kizukanai furi shiteru dake deshou

Bridge

D#m	         C#	Bbm      B	   C#        D#m
nandomo akirameta anata to susumu no o
B	   C#       Bbm		   D#m-C#
aa doushite mo fun kiri tsukanai

Chorus

     F#	     C#    D#m
nani mo shiranai anata no
    Bbm		G#m		     C#	Bbm	  C#
youfuku ni AIRON shiteru te ni namida ga ochite yuku
     F#	     C#	D#m
itsuka anata no sono yume
	Bbm	     G#m		   C#	      Bbm	    C#
kanau toki kuru no kana futari shite shukufuku dekiru kana?
    D#m	C#	Bbm   D#m
shouganai yume oibito

Solo
-------14v--13h14-16-13------------------------------------------------------|
-12h14------------------14-12--12h14r12--11r10h11v--11-12-14-----------------|
-------------------------------------------------------------11-13-15--------|
-----------------------------------------------------------------------------|
-----------------------------------------------------------------------------|
-----------------------------------------------------------------------------|

-------------------13-16v--14r13h14--16-18--19r18h19-------------------------|
-16v-15r13h15-16------------------------------------19r18h19-16r15h16-19-----|
-----------------------------------------------------------------------------|
-----------------------------------------------------------------------------|
-----------------------------------------------------------------------------|
-----------------------------------------------------------------------------|

-20r19h20---------------------|-21-23-24-21-18----21-18-------18-------------|
----------20r19h20-17r16h17-20|----------------21-------21-------21-------21-|
------------------------------|----------------------------22-------22-20----|
------------------------------|----------------------------------------------|
------------------------------|----------------------------------------------|
------------------------------|----------------------------------------------|

--------------|--------------------------------------------------------------|
----------21v-|--------------------------------------------------------------|
-22-20--------|--------------------------------------------------------------|
-------22-----|--------------------------------------------------------------|
--------------|--------------------------------------------------------------|
--------------|--------------------------------------------------------------|

Chorus

      F#	    C#     D#m	  Bbm	   G#m	C#	  Bbm	    C#
nani mo shiranai anata no negao o miteru to omoi de to namida ga afureteku
   	F#	     C#	D#m	Bbm		G#m    C#  Bbm	    C#
nani mo shiaranai anata no youfuku ni AIRON shiteru te ni namida ga ochite..
      F#	     C#	D#m  	Bbm	     G#mC#	  Bbm	    C#
itsuka anata no sono yume kanau toki kuru no kana futari shite shukufuku....
    D#m	C#	Bbm   D#m
shouganai yume oibito
    D#m	C#	Bbm   D#m
sore na no ni anata ga suki

intro Riff
D#m	   C#		Bbm		D#m x2
Tap to rate this tab
# A B C D E F G H I J K L M N O P Q R S T U V W X Y Z