Song name
# A B C D E F G H I J K L M N O P Q R S T U V W X Y Z

Morning Musume - Go Girl Koi No Victory tab

Morning Musume - Go Girl ~Koi No Victory~
manOutOfTime (neil_willey@hotmail.com)

**Intro Riff**
--------------------------------------------|--------------------------------|
---------------------10------10-11-10-------|---------------------10-----10--|
-10---9-10-12--10-12------10----------12-10-|-10---9-10-12--10-12-----10-----|
--------------------------------------------|--------------------------------|
--------------------------------------------|--------------------------------|
--------------------------------------------|--------------------------------|

----------11-|---------------------------------------------------------------|
-11-12-14----|---------------------------------------------------------------|
-------------|---------------------------------------------------------------|
-------------|---------------------------------------------------------------|
-------------|---------------------------------------------------------------|
-------------|---------------------------------------------------------------|

E
Appare appare Kiss shite gato
B
Hit parade hit parade Renai medoree
C#m
Itsumo issho ga ureshii
A		    B7
Namida ni shinaide no no go
E
Bacchiri bacchiri Kiss shite zokkon
B
Hit parade hit parade Renai medoree
C#m
Itsumo issho ga ureshii
A		 B7       E
Koisuru onna no ko no victory v

-11-9------------------------------------------------------------------------|
------12-11-9----------------------------------------------------------------|
--------------11-10----------------------------------------------------------|
-----------------------------------------------------------------------------|
-----------------------------------------------------------------------------|
-----------------------------------------------------------------------------|

---------------------------------------11-13-14-|----------------------------|
------------9------9-11------11-12-14-----------|----------------------------|
-11---10-11-----11--------11--------------------|----------------------------|
------------------------------------------------|----------------------------|
------------------------------------------------|----------------------------|
------------------------------------------------|----------------------------|

D
Deattara sugu koi ni natta
A
(i'm in love you go boy)
D
Kidocchanai unmei no renai
B
(i'm in love you go boy)

   G               Em
Ai wo insutooru shita hi wa
		    C
Dare ka ni kono sugao jiman shitai na
D			  C
Yes (yes) yes (yes) i'm in love
   G			   Em
Ai wa nando demo kagayaite
		 C
Kiseki wo okosu no ne far out!
D       C
Itsumademo

--------7--------------------------------------------------------------------|
----8------------------------------------------------------------------------|
--7---7----------------------------------------------------------------------|
-----------------------------------------------------------------------------|
-----------------------------------------------------------------------------|
-----------------------------------------------------------------------------|

E
Appare appare Kiss shite gato
B
Hit parade hit parade Renai medoree
C#m
Itsumo issho ga ureshii
A		    B7
Namida ni shinaide no no go

E
Bacchiri bacchiri Kiss shite zokkon
B
Hit parade hit parade
C#m
Renai medoree Itsumo issho ga ureshii
A		 B7       E
Koisuru onna no ko no victory v

-11-9------------------------------------------------------------------------|
------12-11-9----------------------------------------------------------------|
--------------11-10----------------------------------------------------------|
-----------------------------------------------------------------------------|
-----------------------------------------------------------------------------|
-----------------------------------------------------------------------------|

---------------------------------------11-13-14-|----------------------------|
------------9------9-11------11-12-14-----------|----------------------------|
-11---10-11-----11--------11--------------------|----------------------------|
------------------------------------------------|----------------------------|
------------------------------------------------|----------------------------|
------------------------------------------------|----------------------------|

D
Enka mo mecha umai hito
A
(i'm in love you go boy)
D
Dansu mo mecha ii kanji
A
(i'm in love you go boy)

   G           Em
Anata renai daijin nara
		 C
Sekaijyuu wo ai de umetsukushite
D			  C
Yes (yes) yes (yes) i'm in love
    G                  Em
Sou ne watashitachi no yume wa
	       C
Kiseki wo okosu kara far out!
D             C
Now we are in love!

**Solo**
-------------------------------------------|--------------------------------|
-12v---10-12-------13-15-12v---10-12-------|-13--12-12v----13--12-12--10-12-|
-------------12v---------------------12v---|--------------------------------|
-------------------------------------------|--------------------------------|
-------------------------------------------|--------------------------------|
-------------------------------------------|--------------------------------|

-------------------------------|---------------------------------------------|
-12--10-10v---12--10-10--8-10--|--10--8-8v----10--8-8--7-8-7-----------------|
-------------------------------|-----------------------------9---------------|
-------------------------------|---------------------------------------------|
-------------------------------|---------------------------------------------|
-------------------------------|---------------------------------------------|

D5
(i'm in love you go boy)
D5
(i'm in love you go boy)

   G           Em
Anata renai daijin nara
		 C
Sekaijyuu wo ai de umetsukushite
D			  C
Yes (yes) yes (yes) i'm in love
    G                  Em
Sou ne watashitachi no yume wa
	       C
Kiseki wo okosu kara far out!
D             C
Now we are in love!

----------7------------------------------------------------------------------|
----8------------------------------------------------------------------------|
-7-----7---------------------------------------------------------------------|
-----------------------------------------------------------------------------|
-----------------------------------------------------------------------------|
-----------------------------------------------------------------------------|

E
Appare appare Kiss shite gato
B
Hit parade hit parade Renai medoree
C#m
Itsumo issho ga ureshii
A		    B7
Namida ni shinaide no no go

E
Bacchiri bacchiri Kiss shite zokkon
B
Hit parade hit parade Renai medoree
C#m
Itsumo issho ga ureshii
A		 B7       E
Koisuru onna no ko no victory v

**Intro Riff**
--------------------------------------------|--------------------------------|
---------------------10------10-11-10-------|---------------------10-----10--|
-10---9-10-12--10-12------10----------12-10-|-10---9-10-12--10-12-----10-----|
--------------------------------------------|--------------------------------|
--------------------------------------------|--------------------------------|
--------------------------------------------|--------------------------------|

----------11-|---------------------------------------------------------------|
-11-12-14----|---------------------------------------------------------------|
-------------|---------------------------------------------------------------|
-------------|---------------------------------------------------------------|
-------------|---------------------------------------------------------------|
-------------|---------------------------------------------------------------|
Tap to rate this tab
# A B C D E F G H I J K L M N O P Q R S T U V W X Y Z