Song name
# A B C D E F G H I J K L M N O P Q R S T U V W X Y Z

Morning Musume - Never Forget tab

Never Forget by Morning Musume
manOutofTime (neil_willey@hotmail.com)
Key: B   

-0---0---2---4-2-0-|--|-5-----4-----2-|-4---4---4---5-2-0-------------2----2
---0---0---0-------|--|---5-----5-----|---0---0---0-------4---4---4-5---4--5
-------------------|--|-----4-----4---|---------------------4---4----------4
-------------------|--|---------------|------------------------------------4
-------------------|x3|---------------|------------------------------------2
-------------------|--|---------------|------------------------------------2
 E       B              C#m             E                 B            Bsus4  

**Chorus**
B		      E
I'll Never Forget You
	    B		       G#m
wasurenai wa  anata no koto
      C#m		   A
zutto soba ni itai kedo
    A		       B
nee shikata nai yo ne
		 E
aa  nakidashisou

C#m       G#m    F#sus4  F#7   
deatta hi ni KANPAI da ne
      C#m      		 G#m
ano koro yori mo kami ga nobita koto
C#m	      B
anata shitteta?

C#m          G#m  F#sus4 F#7
deatta no wa guuzen na no?
       C#m             G#m    F#sus4 F#7
dakara SAYONARA sae mo guuzen na no

C#m		    F#
toukyou de miru hoshi mo
C#m		   D#m
furusato de no hoshi mo
C#m   	F#sus4      Bsus4   
onaji da to oshiete kureta

**Chorus**
B		      E
I'll Never Forget You
	    B		       G#m
wasurenai wa  anata no koto
      C#m		   A
zutto soba ni itai kedo
    A		       B
nee shikata nai yo ne
		 E
aa  nakidashisou

**Chorus**
B			  E
You'll Never Forget Me
	    B		       G#m
wasurenai wa  anata no koto
      C#m		   A
zutto soba ni itai kedo
    A		       B
nee shikata nai yo ne
		 E
aa  nakidashisou

C#m          G#m  F#sus4 F#7
kioku nante tanjun da ne
       C#m             G#m    F#sus4 F#7
dakara kanashimi sae mo omoide da ne

C#m		    F#
kitto mata aeru yo ne
C#m		D#m
kitto warai aeru ne
C#m        F#sus4       Bsus4  
kondo deau toki wa hitsuzen


**Solo**
-------------------------------------------------|----------------9------9---
----13b----13b----13b----13b----12b----12b-9-----|---------------------------
-12-----12-----12-----12-----11-----11-------11v-|------9--11-11b---11b----11
-------------------------------------------------|-9--11---------------------
-------------------------------------------------|---------------------------
-------------------------------------------------|---------------------------
                                                                        
-----------|------------------------------------|------9----999-9---11--12---
-----------|-----9-------------------9----------|-12-9-12bh-----12b-14b-15b--
-9---------|-11b----11-9---------11b---11-9-----|----------------------------
---11-9-11-|-------------11-9-11------------11v-|----------------------------
-----------|------------------------------------|----------------------------
-----------|------------------------------------|----------------------------
                                                                             
-14--16brbrb--16-14---16-14----16v---16-12------------------|----------------
-17b-19brbrb----------------17-------------14-12v-12v-12-12-|----------------
------------------------------------------------------------|----------------
------------------------------------------------------------|----------------
------------------------------------------------------------|----------------
------------------------------------------------------------|----------------
                                                                             
Na Na Na Na...
over:
**Intro Riff**
-0---0---2---4-2-0-|--|-5-----4-----2-|-4---4---4---5-2-0-------------2----2
---0---0---0-------|--|---5-----5-----|---0---0---0-------4---4---4-5---4--5
-------------------|--|-----4-----4---|---------------------4---4----------4
-------------------|--|---------------|------------------------------------4
-------------------|x3|---------------|------------------------------------2
-------------------|--|---------------|------------------------------------2
 E       B              C#m             E                 B            Bsus4  

**Chorus**
B		      E
I'll Never Forget You
	    B		       G#m
wasurenai wa  anata no koto
      C#m		   A
zutto soba ni itai kedo
    A		       B
nee shikata nai yo ne

**Chorus**
B			  E
You'll Never Forget Me
	    B		       G#m
wasurenai wa  anata no koto
      C#m		   A
zutto soba ni itai kedo
    A		       B
nee shikata nai yo ne
		 E
aa  nakidashisou
Tap to rate this tab
# A B C D E F G H I J K L M N O P Q R S T U V W X Y Z