Song name
# A B C D E F G H I J K L M N O P Q R S T U V W X Y Z

Morning Musume - Nature Is Good tab

Morning Musume  - Nature Is Good (from the Coupling Collection)
tabbed by manOutOfTime

**Intro**
-------------------------------------------|-3--5------|---------------------|
-------------------------------------------|-5--7------|---------------------|
------------------------------9------------|-5--7------|---------------------|
----9---------------------------12-9-------|-5--7------|---------------------|
-11---9-11---11-9-11--11-9-11--------12----|-3--5------|---------------------|
----------------------------------------x4-|-3--5------|---------------------|

**Verse**
A
Youki na tenki ni sasoware
D        E      A
Charinko buttobasou
A
Nihon zenkoku no yuushi ga
D        E      E
Ichidou ni kaishite

**Middle**
A         F#m
Hey! come on
G#m	  E
Come on baby
A         F#m
Hey! come on
     G#m
With me

A         F#m
Hey! come on
G#m	  E
Come on baby
A         F#m
Hey! come on
  E
Baby

**Bridge**
A
Namida wa nagareru sa
E
Soitsu ga seishun sa
A
Kuyashisa ga aru kara
A
Mata itsuka
A	      D
Atsuku nareru ze

**Chorus**
Wowow wowwow
E   B     G#m
Ah (wowwowwow)
A
Wow wow
E G#m     A
Nature is good!

E   B     G#m
Ah (wowwowwow)
A
Wow wow
E A       E
Nature is good!

**Verse**
A
Kisaku na yatsura ni kakomare
D           E     A
Kando wa zekkouchou
A
Minami kara nishi ni higashi ni kita made
D         E           E
Zunzun zunzun ayundekou

**Middle**
A         F#m
Hey! come on
G#m	  E
Come on baby
A         F#m
Hey! come on
     G#m
With me

A         F#m
Hey! come on
G#m	  E
Come on baby
A         F#m
Hey! come on
  E
Baby

**Bridge**
A
Koe ga kikoenai ze "koe ga kikoenai zee!"
E
Mada mada yareru darou "hey everybody!"
A
Koe ga kikoenai ze "yeah!"
A
Sono kanji
A      E
Yoi kanji "saikou da zee!"

**Chorus**
Wowow wowwow
E   B     G#m
Ah (wowwowwow)
A
Wow wow
E  G#m      A
Nature is good!

E   B     G#m
Ah (wowwowwow)
A
Wow wow
E A       E
Nature is good!

**Intro Riff**
Wow

**Solo**
------------------|-------------------|------------------|-------------------|
------------------|-------------------|------------------|------7-10--121212-|
-99999---9-7------|-/8--11------------|-99999---9-7------|-/7----------------|
-------------10-9-|-------------------|-------------10-9-|-------------------|
------------------|---------14-12-11--|------------------|-------------------|
------------------|-------------------|------------------|-------------------|

-------------|-121212-111111-1010-141414-131313-121210-|-19------------------|
-111111-1010-|-121212-111111-1010----------------------|---------------------|
-------------|-----------------------------------------|---------------------|
-------------|-----------------------------------------|---------------------|
-------------|-----------------------------------------|---------------------|
-------------|-----------------------------------------|---------------------|

**Chorus**
Wowow wowwow
E   B     G#m
Ah (wowwowwow)
A
Wow wow
E  G#m      A
Nature is good!

E   B     G#m
Ah (wowwowwow)
A
Wow wow
E A       E
Nature is good!

E   B     G#m
Ah (wowwowwow)
A
Wow wow
E  G#m      A
Nature is good!

E   B     G#m
Ah (wowwowwow)
A
Wow wow
E A       E
Nature is good!

**Intro Riff**
Tap to rate this tab
# A B C D E F G H I J K L M N O P Q R S T U V W X Y Z