Morning Runner - Gone Up In Flames tab

Tabbed by Kill0Switch
Tuning: Standard

This is my first tab, hope you like it.

Intro Chords G, Em, G, Em, G

2 bars of each, 4 for final G.

Verse: D,A,Em,G,A (2 bars of D,A,Em then one for G and A)

Stab for D and first a chord, Em, G and second A, strumming.

Keyboard parts.

Starts on 7th D chord|Starts on 7th A Chord|Starts on 7th Em|Starts on A
e|---------------------------------------------------------------------------|
B|---------------------------------------------------------------------------|
G|---------------------------------------------------7---------9-------------|
D|-----7----------------7--5--4----------------7--9--------------------------|
A|--5-----7-----------------------2------------------------------------------|
E|---------------------------------------------------------------------------|
You might not be able to hear the 4 on D but it's there.

Not completely sure about this as the melody is very very quiet but it just sounds like 
this (chorus chords are same as the intro accept they start on Em plus no extra G.)
e|---------------------------------------------------------------------------|
B|---------------------------------------------------------------------------|
G|--12--14--12---------------------------------------------------------------|
D|---------------------------------------------------------------------------|
A|---------------------------------------------------------------------------|
E|---------------------------------------------------------------------------|

Guitar solo

A bit uncertain about this but I think I got it right. It's really easy, but sounds good.

e|---------------------------------------------------------------------------|
B|--------10----------------10----------8-----8------------------------------|
G|-----7----------------7----------7-------7-----------12-11-7---------------|
D|-----------------------------------------------9/12------------------------|
A|-/9------------9--9/7-------9/7--------------------------------------------|
E|---------------------------------------------------------------------------|
This then repeats once through the verse, then goes back to the normal verse.


Tab isn't spaced out brilliantly so you'll have to work out where the notes are at some 
points but it isn't that hard.

This song is really fun to play so I hope you enjoy learning and playing it, this is 
about 90-95% correct.

Song order

Intro
Verse
Chorus
Guitar Solo
Verse w/solo
Verse
Chorus
Chorus/outro.

************************************

| /   slide up
| \   slide down
| h   hammer-on
| p   pull-off
| ~   vibrato
| +   harmonic
| x   Mute note
| b   Bend
| pb  Pre-bend
| br  Bend release
| pbr Pre-bend release
| brb Bend release bend

************************************
Tap to rate this tab
 
# A B C D E F G H I J K L M N O P Q R S T U V W X Y Z