Song name
# A B C D E F G H I J K L M N O P Q R S T U V W X Y Z

Morning Runner - Gone Up In Flames tab

Intro
e|3----0----3----0----3----3-----------------------|
B|2----2----2----2----2----2-----------------------|
G|0----2----0----2----0----0-----------------------|
D|0----0----0----0----0----0-----------------------|
A|3----0----3----0----3----3-----------------------|
E|3----0----3----0----3----3-----------------------|

Verse 1

e|--------------------------------0----3-----------------|
B|--------------------------------2----2-----------------|
G|----------------2-2-2-2-2-2-2-2-2----0-----------(x3)--|
D|2-2-2-2-2-2-2-2-2-2-2-2-2-2-2-2-0----0-----------------|
A|3-3-3-3-3-3-3-3-2-2-2-2-2-2-2-2-0----3-----------------|
E|2-2-2-2-2-2-2-2-----------------0----3-----------------|

Chorus

e|0----3---------------------------|
B|2----2---------------------------|
G|2----0--------(x4)---------------|
D|0----0---------------------------|
A|0----3---------------------------|
E|0----3---------------------------|

Solo

E-----5-----------5---------------------------|
B---------7---------7/8/7-----8---8-----8-7---|
G---7---7---7---7-----------9---9---9-------7-|
D-7-----------7-----------9-----------9-------|
A---------------------------------------------|
E---------------------------------------------|

Verse 2

e|--------------------------------0----3-----------------|
B|--------------------------------2----2-----------------|
G|----------------2-2-2-2-2-2-2-2-2----0-----------(x3)--|
D|2-2-2-2-2-2-2-2-2-2-2-2-2-2-2-2-0----0-----------------|
A|3-3-3-3-3-3-3-3-2-2-2-2-2-2-2-2-0----3-----------------|
E|2-2-2-2-2-2-2-2-----------------0----3-----------------|

Chorus

e|0----3---------------------------|
B|2----2---------------------------|
G|2----0--------(x4)---------------|
D|0----0---------------------------|
A|0----3---------------------------|
E|0----3---------------------------|

Outro

e|0----3---------------------------|
B|2----2---------------------------|
G|2----0--------(x4)---------------|
D|0----0---------------------------|
A|0----3---------------------------|
E|0----3---------------------------|



Tap to rate this tab
 
# A B C D E F G H I J K L M N O P Q R S T U V W X Y Z