Song name
# A B C D E F G H I J K L M N O P Q R S T U V W X Y Z

Morning Teleportation - Crystalline tab

~~PROOF OF BAND LEGITNESS~~

Why they are using Myspace is unknown to me...

http://www.myspace.com/morningteleportation

SOOO Frontman for Modest Mouse owns the newly created recording/production company 
"Glacial Palace"

http://www.spin.com/articles/modest-mouses-brock-helms-new-imprint

And, Morning Teleportation signed and recorded their debut album at Glacial Palace...

http://oregonmusicnews.com/blog/2011/03/08/morning-teleportation-is-expanding-
anyway-on-their-debut-effort/


-------------------------------------------------------------------------------
			 CRYSTALLINE - Morning Teleportation
-------------------------------------------------------------------------------
Tabbed by: Macheeoo
Email: macheeoo@yahoo.com

Tuning: Standard CAPO VI

Intro 0:00   **brush across stings with these two chords until the verse
     Am     E
e|---0------0----------------------------------------------------------------|
B|---1------0----------------------------------------------------------------|
G|---2------1----------------------------------------------------------------|
D|---2------2----------------------------------------------------------------|
A|---0------2----------------------------------------------------------------|
E|----------0----------------------------------------------------------------|

Ooo/Verse  0:30
     Am                            E
e|---------------------------------------------------------------------------|
B|---1----1-1----1-1----1-1----1~--------------------------------------------|
G|-----2------0------4------2------1----1-1----1-1----1-1----1~--------------|
D|---2---2--2---2--2---2--2---2------2------0------3------2------------------|
A|---------------------------------2---2--2---2--2---2--2---2----------------|
E|---------------------------------------------------------------------------|  X4

Chorus  1:00
     C    F
e|---0----1------------|
B|---1----1------------|
G|---0----2------------|
D|---2----3------------|
A|---3----3------------|
E|--------1------------|  X2

Verse 2  1:17
     Am                            E
e|---------------------------------------------------------------------------|
B|---1----1-1----1-1----1-1----1~--------------------------------------------|
G|-----2------0------4------2------1----1-1----1-1----1-1----1~--------------|
D|---2---2--2---2--2---2--2---2------2------0------3------2------------------|
A|---------------------------------2---2--2---2--2---2--2---2----------------|
E|---------------------------------------------------------------------------|  X3

Chorus 2  1:41  **strum fast!
     C    F
e|---0----1------------|
B|---1----1------------|
G|---0----2------------|
D|---2----3------------|
A|---3----3------------|
E|--------1------------|  X2

Bridge  2:05   **this part is fast!
     C
e|---------------0----------|     |-------------1---3---3----|
B|------1-----0---0-1-0-----|     |------1---1---1-1---------|
G|-------0-0----------------|     |-----2-2-2-2---2---2~-----|
D|----2-----2--2------------|     |----3-------3-----3-------|
A|0h23-3--3--3--3-----------|     |---3----3-----------------|
E|--------------------------| X2  |--------------------------|  X2

OR

Strum these chords really fast with some hammer ons + pulls offs
     C    F
e|---0----1------------------------------------------------------------------|
B|---1----1------------------------------------------------------------------|
G|---0----2------------------------------------------------------------------|
D|---2----3------------------------------------------------------------------|
A|---3----3------------------------------------------------------------------|
E|--------1------------------------------------------------------------------|

2:39
e|---------------------------------------------------------------------------|
B|---------------------------------------------------------------------------|
G|-4/5-555\4-444\2-222/4--4/5-555\4-444\2-222/44/5-555-5/7-777-7/99/10-9-7-9-|
D|---------------------------------------------------------------------------|
A|---------------------------------------------------------------------------|
E|---------------------------------------------------------------------------|

e|-----------------------------------------------------------------------------|
B|-----------------------------------------------------------------------------|
G|-----------------------------000-222-4-5~------------------------------------|
D|--333-222-000-222~-222-333---------------------------------------------------|
A|-----------------------------------------------------------------------------|
E|-----------------------------------------------------------------------------|

    C                C                 F
e|--0-000-00-0-0-0---0-000-00-0-0-0----1-111-11-333-1---1-111-11-333-1-------|
B|--1-111-11-1-0-1---1-111-11-1-0-1----1-111-11-111-1---1-111-11-111-1-------|
G|--0-000-00-0-0-0---0-000-00-0-0-0----2-222-22-222-2---2-222-22-222-2-------|
D|-(2-222-22-2-2-2)-(2-222-22-2-2-2)---3-333-33-333-3---3-333-33-333-3-------|
A|-(3-333-33-3-3-3)-(3-333-33-3-3-3)--(3-333-33-333-3)-(3-333-33-333-3)------|
E|------------------------------------(1-111-11-111-1)-(1-111-11-111-1)------|


Bridge (2)   3:23
e|---------------------------------------------------------------------------|
B|---------------------------------------------------------------------------|
G|---------------------------------------------------------------------------|
D|----------5~--------5~--------5~--------5~---------------------------------|
A|---0-0-00----0-0-00----0-0-00----0-0-00------------------------------------|
E|---------------------------------------------------------------------------|

e|---------3-2-0-8-7-5-----------------------3-2-0-8-7-5-3-0-----------------|
B|---------------------7-5-3b(5)3p1-------------------------3-3p1--1---------|
G|---2-4-5--------------------------2~-2-4-5----------------------2-2~-------|
D|---------------------------------------------------------------------------|
A|---------------------------------------------------------------------------|
E|---------------------------------------------------------------------------|

Bridge (3)  3:36
     Am                E
e|---0-0-0-0-0-0-0-0---0-0-0-0-0-0-0-0---------------------------------------|
B|---1-1-1-1-1-1-1-1-0-0-0-0-0-0-0-0-0---------------------------------------|
G|---2-2-2-2-2-2-2-2-0-1-1-1-1-1-1-1-1---------------------------------------|
D|---2-2-2-2-2-2-2-2-0-2-2-2-2-2-2-2-2---------------------------------------|
A|---0-0-0-0-0-0-0-0---2-2-2-2-2-2-2-2---------------------------------------|
E|---------------------0-0-0-0-0-0-0-0---------------------------------------|  X2

Chorus   3:50
     C    F
e|---0----1------------|
B|---1----1------------|
G|---0----2------------|
D|---2----3------------|
A|---3----3------------|
E|--------1------------|  X2

Outro   4:09
    C                     C
e|--0------------------------------------------------------------------------|
B|--1-1--1--0--------------1--1--0-------------------------------------------|
G|--0--0--0--0----0----0----0--0--0-----0----0-------------------------------|
D|--2----------0h2--0h2--------------0h2--0h2--------------------------------|
A|--3---3--3--3----------3---3--3--3-----------3-----------------------------|
E|---------------------------------------------------------------------------|
    F                     C
e|--1-----------1---------0--------------------------------------------------|
B|--1-1------1---1--------1-1--1--0------------------------------------------|
G|--2--2-------2--2--2----0--0--0--0-----0----0------------------------------|
D|--3---3---2------3---3--2-----------0h2--0h2-------------------------------|
A|--3----3-3--------------3---3--3--3----------3-----------------------------|
E|--1------------------------------------------------------------------------|

    G                   C
e|--3----0------0---0---0----------------------0-----------------------------|
B|--3-----0------0---0--1-1--1--0--------------1-----------------------------|
G|--0---0------0--------0--0--0--0-----0----0--0-----------------------------|
D|--0--0------0---------2-----------0h2--0h2---2-----------------------------|
A|--2-2----0h2----------3---3--3--3----------3-3-----------------------------|
E|--3--------------0---------------------------------------------------------|

REPEAT OUTRO

4:39
e|---------------------------------------------------------------------------|
B|---------------------------------------------------------------------------|
G|---------------------------------------------------------------------------|
D|----------5~--------5~--------5~--------5~---------------------------------|
A|---0-0-00----0-0-00----0-0-00----0-0-00------------------------------------|
E|---------------------------------------------------------------------------|


Lyrics:

You're far less limber than you used to be*
I can hear you creaking as you're wandering

Make a move from city to city
But I can't take it in 'cause it's all so pretty love

You can bend light
'Cause you're so crystalline
From miles away i can hear you breathin'

Make a move from city to city
But I can't take it in 'cause it's all so pretty love

Happiness was the trigger you pulled to kill your ego
Laughter is capable of peace and hope

Make a move from city to city
But I can't take it in 'cause it's all so pretty love
Tap to rate this tab
 
# A B C D E F G H I J K L M N O P Q R S T U V W X Y Z