Song name
# A B C D E F G H I J K L M N O P Q R S T U V W X Y Z

Morning Teleportation - Snow Frog Vs Motor Cobra tab

This is my first tab, so I'm hoping it's pretty good! Hopefully someone will come 
along and figure out the rest of the song soon.

Good luck!

========================================================
Morning Teleportation - Snow Frog vs. Motor Cobra (solo)
========================================================
Tabbed by: Harrydg


Tuning: Standard

                                ~~~~
e|--------10-----------------------------------------------------------------|
B|-----------10--------------------------------------------------------------|
G|--12b14-------(12)b14r12---10-12---10-12b14r12p10----10--------------------|
D|--------------------------------------------------12----12-----------------|
A|---------------------------------------------------------------------------|
E|---------------------------------------------------------------------------| x2


e|--10-9-10-9----------------------------------------------------------------|
G|------------10-9-10-9-10-9-------------------------------------------------|
B|---------------------------12-10----10-12b14r12b14r12-10-12b14r12b14r12-10-|
D|---------------------------------12----------------------------------------|
A|---------------------------------------------------------------------------|
E|---------------------------------------------------------------------------|

----------------------------|
----------------------------|
----------------------------|
--12-12---10-10-10---10h12--|
----------------------------|
----------------------------|

e|--9h10-9h10-12-10-9--------------------------------------------------------|
B|--------------------10-----------------------------------------------------|
G|-----------------------12-10----12b14r12----10-----------------------------|
D|-----------------------------12----------12------12-10-12------------------|
A|---------------------------------------------------------------------------|
E|---------------------------------------------------------------------------|


talkbox part 1
e|---------------------------------------------------------------------------|
B|---------------------------------------------------------------------------|
G|------5-5-7-5h7-5-------5-5-7-5h7-5-------5-5-7-5h7-5-----5-7-7--p5--------|
D|--7-7---------------7-7---------------7-7---------------7-----------7------|
A|---------------------------------------------------------------------------|
E|---------------------------------------------------------------------------|

e|---------------------------------------------------------------------------|
B|---------------------------------------------------------------------------|
G|------5-5-7-5h7-5-------5-5-7-5h7-5-------5-5-7-5h7-5-----5-7-7------------|
D|--7-7---------------7-7---------------7-7---------------7------------------|
A|---------------------------------------------------------------------------|
E|---------------------------------------------------------------------------|

talkbox part 2
e|--------------------------------------------------------------------------------------------|
B|--------------------------------------------------------------------------------------------|
G|--------------------------------------------------------------------------------------------|
D|----------3-----------------------3-----------------------3---5b7r5-3-5-3-------3-----------|
A|--3---3h5-----------------3---3h5-----------------3---3h5-----------------5-3-5---5-3-5-----|
E|--------------3---3-3-3---------------5---5-5-5---------------------------------------------| x2 

(play talkbox part 1 again)
Tap to rate this tab
 
# A B C D E F G H I J K L M N O P Q R S T U V W X Y Z