Song name
# A B C D E F G H I J K L M N O P Q R S T U V W X Y Z

Morningwood - Easy tab

Morningwood - Easy

tab:a.k Senftleber :}

E--------------------------------------------------------|
B--------------------------------------------------------|
G--7-7-7-7-7-7---7-7-7-7-7-7--2----------7----------2----|
D--4-5-4-5-4-5---4-5-4-5-4-5--2--X4------7----------2----|
A-----------------------------0----------5----------0----|
E--------------------------------------------------------|

Its sooo eaaasyyy
E--------------------------------------------------------|
B--------------------------------------------------------|
G--5---7-2----5---2--------------------------------------|
D--5-5-7-2----5-5-2--------------------------------------|
A--3-5-5-0----3-5-0--------------------------------------|
E----3----------3----------------------------------------|

Phaser bitch
E-----------------------------------------------------------------------|
B-7-8-7-8-7-8------------------8-8--8-8--8p7-7-7----------8-8--8-8--8p7-|
G-7-7-7-7-7-7------------------7-7--7-7--7---7-7-9-9---9--7-7--7-7--7---|
D------------------------------------------------9-9---9----------------|
A-----------------------------------------------------------------------|
E--------------2-3-4-5--------------------------------------------------|
Tap to rate this tab
 
# A B C D E F G H I J K L M N O P Q R S T U V W X Y Z