Song name
# A B C D E F G H I J K L M N O P Q R S T U V W X Y Z

Morningwood - Cat In A Box tab

[pattern 1]
e|----------------------------------------------|
b|------1---------0-------1---------------------|
g|---2----2----1-------2----2-----0>hammer>1----|
d|----------------------------------------------|
a|-0--------2--------0---------2----------------|
e|----------------------------------------------|

e|----------------------------------------------|
b|------1---------0-------1----1----------------|
g|---2----2----1-------2----2-------------------|
d|----------------------------------------------|
a|-0--------2--------0--------------------------|
e|----------------------------------------------|

[end pattern 1]

[pattern 2]
e|----------------------------------------------|
b|------1---------0-------1-----------0---------|
g|---2----2----1-------2----2------1------------|
d|----------------------------------------------|
a|-0--------2--------0---------2----------------|
e|----------------------------------------------|
It's Sunday morning Iím afraid to wake up cause I

e|----------------------------------------------|
b|------1---------0-------1---------------------|
g|---2----2----1-------2----2-----0>hammer>1----|
d|----------------------------------------------|
a|-0--------2--------0---------2----------------|
e|----------------------------------------------|
know I ainít sleeping alone

e|----------------------------------------------|
b|------1---------0-------1-----------0---------|
g|---2----2----1-------2----2------1------------|
d|----------------------------------------------|
a|-0--------2--------0---------2----------------|
e|----------------------------------------------|
I canít turn over I canít open my eyes and I

e|----------------------------------------------|
b|------1---------0-------1-----3------1--------|
g|---2----2----1-------2----2------2------------|
d|----------------------------------------------|
a|-0--------2--------0----------0------0--------|
e|----------------------------------------------|
donít think I will till youíre gone

[end pattern 2]

F                                  Dm
I donít wanna care, I donít wanna care
                   Am    G            C
I should have never led you on

mAm
I donít wanna care
Am                   G              C
I thought the morning would heal me
                                                                Am
but everythingís changed, everythingís changed
                G                C
I thought tomorrow was easy
                                         Am
but now its today, now its today
               mAm
and I feel caught like a cat in a box

clawing to escape

[pattern 1]

[pattern 2]
Regrets are such a bitch

this bitch is a teacher

this teacherís a bitch

I'm such a sucker for some crooked teeth

and a pair of skinny black jeans
[pattern 2 end]

F
One drink I don't care
G
Two drinks I just dare
                  Am     G        C
I should have never had the third
        mAm
and I saw you standing there
Am                   G                 C
I thought the morning would heal me
                                                   Am
but everythingís changed, everythingís changed
                G                C
I thought tomorrow was easy
                                Am
but now its today, now its today
               mAm
and I feel caught like a cat in a box

clawing to escape

e|----------------------------------------------|
b|------1---------0-------1---------------------|
g|---2----2----1-------2----2-----0>hammer>1----|
d|----------------------------------------------|
a|-0--------2--------0---------2----------------|
e|----------------------------------------------|

F
God I hope that you're leaving
            C                                    (drop first finger)
is it wrong to hope that you're leaving
              F
not believing

Am                   G                 C
I thought the morning would heal me
                                                   Am
but everythingís changed, everythingís changed
                G                C
I thought tomorrow was easy
                                Am
but now its today, now its today
               mAm
and I feel caught like a cat in a box

clawing to escape

e|----------------------------------------------|
b|------1---------0-------1---------------------|
g|---2----2----1-------2----2-----0>hammer>1----|
d|----------------------------------------------|
a|-0--------2--------0---------2----------------|
e|----------------------------------------------|

e|-----------------------------------------------|
b|------1---------0-------1-----3------1------1--|
g|---2----2----1-------2----2------2------2------|
d|-----------------------------------------------|
a|-0--------2--------0----------0------0---------|
e|-----------------------------------------------|


                             -fin-



        mAm

e|--------|---------|
b|--------|---------|
g|----0---|---------|
d|--------|---------|
a|--------|----0----|
e|--------|---------|
Tap to rate this tab
# A B C D E F G H I J K L M N O P Q R S T U V W X Y Z