Song name
# A B C D E F G H I J K L M N O P Q R S T U V W X Y Z

Moros Eros - Today Is The Day tab

-------------------------------------------------------------------------------
Today is the Day intro  Moros Eros
-------------------------------------------------------------------------------
Tabbed by:sonny moore
Email:

Tuning:drop b jk standard

Just follow the song. Enjoy very fun.
e|---------------------------------------------------------------------------------------|
B|---------------------------------------------------------------------------------------|
G|------------------9--------------9---------------9----------------9----------9---------|
D|-----------10-------------10--------------10---------------10---------10---------------|
A|------12-------------12-------------12--------------12------------12-------------------|
E|---------------------------------------------------------------------------------------|

e|---------------------------------------------------------------------------------------|
B|---------------------------------------------------------------------------------------|
G|--------------9-----------9-----------9------------9-----------9-----------------------|
D|-------10----------10-----------10----------10-----------10----------------------------|
A|--11----------11-------------11--------11-----------11---------------------------------|
E|---------------------------------------------------------------------------------------|

| /  slide up
| \  slide down
| h  hammer-on
| p  pull-off
| ~  vibrato
| +  harmonic
| x  Mute note
=================
http://www.victoryrecords.com/moroseros
Tap to rate this tab
# A B C D E F G H I J K L M N O P Q R S T U V W X Y Z