Song name
# A B C D E F G H I J K L M N O P Q R S T U V W X Y Z

Moros Eros - Today Is The Day tab

-------------------------------------------------------------------------------
                        Today Is The Day - Moros Eros
-------------------------------------------------------------------------------
Tabbed by:jarod_a11en
E-mail:jarodallen123@hotmail.com                


Tuning: EADGBe (Standard)



This is an acoustic version of the song but I'm sure both match up maybe a few differences 
but you shouldn't have any problems.

This is from a video of Zach Tipton performing on a radio show. 

Here's the video link: http://www.youtube.com/watch?v=SpheUC1iFnw&NR=1&feature=endscreen



               INTRO/VERSE
e|---------------------------------------------|  
B|---------------------------------------------|
G|--9r-----9--9---9--9--9---9--9---9--9--9-----| x14
D|--x------x--x---x--x--x---x--x---x--x--x-----|
A|-11r----11-11--11-11-11--10-10--10-10-10-----|
E|---------------------------------------------|




e|----------------------------|  |-------------------------------------------------|
B|----------------------------|  |-------------------------------------------------|
G|-11-9--------11-9---------9-|  |-------------------------------------------------|
D|------11-9--------11-9-11-9-|x6|--9-10-11--9-10-11--9-10-11--9-10-11--9-10-11----|
A|----------------------------|  |-------------------------------------------------|x3
E|----------------------------|  |-------------------------------------------------|




e|-----------------------------------|    |---------------------------| THis part is optional
B|-----------------------------------|    |---------------------------| He only plays it in
G|---9--9---9--9--9---9--9---9--9--9-|    |--9--9-8-6-6-4-------------| this perfomance
D|---x--x---x--x--x---x--x---x--x--x-|x2  |--x--x-x-x-x-x-------------| 
A|--11-11--11-11-11--10-10--10-10-10-|    |-11-10-9-8-7-5-------------|
E|-----------------------------------|    |---------------------------|




e|-----------------------------|    |----------------------------------------------|
B|-----------------------------|    |----------------------------------------------|
G|-11-9------11--11-9---------9|    |----------------------------------------------|
D|------11-9-11-------11-9-11-9|x6  |-9-10-11--9-10-11--9-10-11--9-10-11--9-10-11--|x3
A|-----------------------------|    |----------------------------------------------|
E|-----------------------------|    |----------------------------------------------|




e|------------------------------------------|
B|------------------------------------------|
G|------------------------------------------|
D|---------9-10-11--------9-10-11-----------|x2
A|------------------------------------------|
E|--7-8-9----------7-8-9----------7-8-9-----|




e|------------------------------------------------------|
B|------------------------------------------------------|
G|--9--9-xxx--9-8-8-xxx-8-8-8-xxx-8-8--9-x--9-8-8--9----|
D|-10-10-xxx-10-9-9-xxx-9-8-8-xxx-8-9-10-x-10-8-9-10----|
A|-11-11-xxx-11-8-8-xxx-8-8-8-xxx-8-8-11-x-11-8-8-11----|
E|------------------------------------------------------|




e|----------------------|   |-----------------------------------------------------|
B|----------------------|   |-----------------------------------------------------|
G|--9r----9r---8r---8r--|x4 |-----------------------------------------------------|x3
D|-10r---10r---9r---8r--|   |--9-10-11--9-10-11--9-10-11--9-10-11--9-10-11--------|
A|-11r----9r---8r---8r--|   |-----------------------------------------------------|
E|----------------------|   |-----------------------------------------------------|




e|-----------------------------------|   |-----------------------|   |-----------------|
B|-----------------------------------|   |-----------------------|   |-----------------|
G|-----------------------------------|   |---9--9--9--9--9-9-9-9-|   |-9--9------------| End 
D|-------9-10-11-------9-10-11-------|x2 |--10-10-10-10--8-8-8-8-|x9 |10-10------------|
A|-----------------------------------|   |--11-11-11-11--8-8-8-8-|   |11-11------------|
E|-7-8-9---------7-8-9---------7-8-9-|   |-----------------------|   |-----------------|


************************************

| r   let ring
| /   slide up
| \   slide down
| h   hammer-on
| p   pull-off
| ~   vibrato
| +   harmonic
| x   Mute note
| b   Bend
| pb  Pre-bend
| br  Bend release
| pbr Pre-bend release
| brb Bend release bend

************************************
Tap to rate this tab
 
# A B C D E F G H I J K L M N O P Q R S T U V W X Y Z