Song name
# A B C D E F G H I J K L M N O P Q R S T U V W X Y Z

Moros Eros - Madness Seems So Normal tab

----------------------------------------------------------------------------
	           Madness Seems So Normal-Moros Eros
-------------------------------------------------------------------------------
Tabbed by:fameguitarist43
Email:piercealcaraz@hotmail.com

Tuning:standard

this is the guitar part after the soft and mellow stuff.this is my first tab so sorry if 
wrong!enjoy!

e|-------------------------------------------------------------------------|
B|-------------------------------------------------------------------------|
G|-0--4-5-6--6-5-0--4-5-6-5-3-4--------------------------------------------|
D|-------------------------------------------------------------------------|
A|-------------------------------------------------------------------------|
E|-------------------------------------------------------------------------|

e|-------------------------------------------------------------------------|
B|-------------------------------------------------------------------------|
G|----4-5-6--6-5----4-5-6-5-3-4--------------------------------------------|
D|-0-------------0---------------------------------------------------------|
A|-------------------------------------------------------------------------|
E|-------------------------------------------------------------------------|

e|-------------------------------------------------------------------------|
B|-------------------------------------------------------------------------|
G|--0--4-5-6--6-5-0--4-5-6-5-3-4-------------------------------------------|
D|-------------------------------------------------------------------------|
A|-------------------------------------------------------------------------|
E|-------------------------------------------------------------------------|

e|-------------------------------------------------------------------------|
B|-------------------------------------------------------------------------|
G|----4-5-6--6-5----4-5-6-5-3-4--------------------------------------------|
D|-0-------------0---------------------------------------------------------|
A|-------------------------------------------------------------------------|
E|-------------------------------------------------------------------------|

and it continues on and then it goes to the soft part,and then it plays again but after 
theres a little soft solo i don't know so tell me how i did or what i did wrong so i know

| /  slide up
| \  slide down
| h  hammer-on
| p  pull-off
| ~  vibrato
| +  harmonic
| x  Mute note
===============================================================================
Tap to rate this tab
# A B C D E F G H I J K L M N O P Q R S T U V W X Y Z