Song name
# A B C D E F G H I J K L M N O P Q R S T U V W X Y Z

Morrison Van - Moondance tab

Hi
this is my first TAB that i've written out so please comment if it's off

it sounds good if you play with the intro chords throughout, however i'm not sure what 
sounds like with the track

have fun

Intro plucked


e|-5---7---8---7---5---7---8---7---|
b|-5---7---8---7---5---7---8---7---|
g|-5---7---9---7---5---7---9---7---|
d|-5---7---10--7---5---7---10--7---|
a|---------------------------------|
E|---------------------------------|

Tune

e|-----------------------------------------------------------------|
b|----7--9--10--9--7--9--7-----7--------7--9--10--9--7--9--7----7--|
g|-9------------------------9-----6--9------------------------9----|	repeat
d|-----------------------------------------------------------------|
a|-----------------------------------------------------------------|
E|-----------------------------------------------------------------|


e|----------10--12--10------------7------7--9--|
b|----7--9--------------7--9--10-----10--------|
g|-9-------------------------------------------|  repeat
d|---------------------------------------------|
a|---------------------------------------------|
E|---------------------------------------------|


e|-14--12------14----------------------------------------------------------|
b|---------14------12(po)10(ho)12--12(po)10(ho)12--12(po)10(ho)12-/14--7-7-|
g|-------------------------------------------------------------------------|
d|-------------------------------------------------------------------------|
a|-------------------------------------------------------------------------|
E|-------------------------------------------------------------------------|
Tap to rate this tab
# A B C D E F G H I J K L M N O P Q R S T U V W X Y Z