Song name
# A B C D E F G H I J K L M N O P Q R S T U V W X Y Z

Morrison Van - Brown Eyed Girl tab

MAYHEM  ALL ORIGINAL TABS


Brown eyed Girl - Van Morrison

Intro:
  --3--5--7--5--3---|-8--10--12--10--8|--3--5--7--5--3--|--5----------|
  ------------------|-----------------|-----------------|-----3--5--7-|
  --4--5--7--5--4---|-9--10--12--10--9|--4--5--7--5--4--|--5----------|   2X
  ------------------|-----------------|-----------------|-----0--5--7-|
  ------------------|-----------------|-----------------|-------------|
  ------------------|-----------------|-----------------|-------------|

Main:  
RIFF A  Part 1
  --3----7--5--3--|--8----12--10--8--|--3---5-7--5--3--5-|-----0--2--|
  ----------------|------------------|-------------------|--3--------|
  --4----7--5--4--|--9----12--10--9--|--4---5-7--5--4--5-|-----------|   2X
  ----------------|------------------|-------------------|-----------|   
  ----------------|------------------|-------------------|-----------|
  ----------------|------------------|-------------------|-----------|

        Part 2
  --3----3--5--7--|--8----8--10--12--|--3---5-7--5--3--5-|-----0--2--|
  ----------------|------------------|-------------------|--3--------|
  --4----4--5--7--|--9----9--10--12--|--4---5-7--5--4--5-|-----------|  2X
  ----------------|------------------|-------------------|-----------|
  ----------------|------------------|-------------------|-----------|
  ----------------|------------------|-------------------|-----------|
  

  -------0----2-2-0-0-2-|--3--5--3-2--0----------|--------0--3--2--0-0--2--3-|
  --1------1------------|----------------0-----0-|--1--3---------------------|
  ----------------------|--4--5--4-2--0-----0----|---------------------------|
  ----------------------|----------------0-------|---------------------------|
  ----------------------|------------------------|---------------------------|
  ----------------------|------------------------|---------------------------|

1st TIME
RIFF B
  --10-10--8--7--5--|
  ------------------|
  --11-11--9--7--5--|   Head back into Riff A after 1st time through  
  ------------------|    Second time through, mix up the measures of parts 1 
  ------------------|      and 2 a bit
  ------------------|


2nd and 3rd TIME (CHORUS)

	  D			D7	G
  Do you remember when...  we used to sing.



	G			C		G		 Dadd5  D     
  Shah la la la lah.....    la la la la...   la la la la...    Dee Dahhhh        2X



Bridge

  --3--7--5--------0--2-|---------------------|--------------------|
  -----------3--3-------|---------------------|--------------------|
  --4--7--5-------------|---------------------|------------------0-|
  ----------------------|---------------------|----------------2---|
  ----------------------|---------------------|---------2-3--3-----|
  ----------------------|-3---3-3----3---3-3--|-3---3-3------------|


  ---------------------|
  ---------------------|
  ---------------------|   Head Back to Riff A
  ---------------------|     and add some major syncopation
  ----------2-3--3-2-0-|
  --3---3-3------------|
Tap to rate this tab
 
# A B C D E F G H I J K L M N O P Q R S T U V W X Y Z