Guitaretab - guitar tabs
Song name
# A B C D E F G H I J K L M N O P Q R S T U V W X Y Z

Morrissey - Bengali In Platforms tab



F6/9  xx3233



 
Dm7 F6/9  Dm7  G    Dm7 F6/9  Dm7  G
Bengali   Bengali   Bengali   Bengali
Fmaj7                          G
No no no he does not want to depress you
   Fmaj7                             G 
Oh no no no no no he only wants to impress you
F          C
Bengali in platforms
F                  C          G
He only wants to embrace your culture
And to be your friend forever

Dm7 F6/9    Dm7  G    Dm7 F6/9  Dm7  G
Bengali     Bengali   Bengali   Bengali
[ Tab from: http://www.guitaretab.com/m/morrissey/100561.html ]
    Oh shelve your western plans and understand that life is hard enough
e|---------------------------------------------------------------------------|
B|-13-13-15-15-17-17--------------13-13-15-15-13---13-13-17-17-15-15-13-13---|
G|-------------------12-12-14-14---------------------------------------------|
D|---------------------------------------------------------------------------|
A|---------------------------------------------------------------------------|
E|---------------------------------------------------------------------------|
    when  you belong here  (play this part twice)
e|---------------------------------------------------------------------------|
B|-------13-13-13-15-15-13---------------------------------------------------|
G|-12-14---------------------------------------------------------------------|
D|---------------------------------------------------------------------------|
A|---------------------------------------------------------------------------|
E|---------------------------------------------------------------------------|

   Dm7    F6/9             Dm7    G
 A silver-studded rim that glistens
 Fmaj7                  G
 And an ankle-star that blinds me
            Fmaj7      
And a lemon sole so very high
             G
Which only reminds me to tell you
F              C
Break the news gently
F                     C
Break the news to him gently 



Bengali, Bengali
It's the touchy march of time that binds you
Don't blame me
Don't hate me
Just because I'm the one to tell you

That life is hard enough when you belong here
That life is hard enough when you belong here
Oh...
Shelve your Western plans
Oh...
Shelve your Western plans
'Cause life is hard enough when you belong
Life is hard enough when you belong here
Oh...
Shelve your Western plans
Oh...
Shelve your best friends
'Cause life is hard when you belong here
Related for Bengali In Platforms tab
×
Best way to learn
"Bengali In Platforms"