Song name
# A B C D E F G H I J K L M N O P Q R S T U V W X Y Z

Morrissey - More You Ignore Me tab

this is my tab from this song that is one of my favorites.
any commment or incorrect thing mail me please.
iwantitall_tony@hotmail.com


GUITAR 1

intro- and this part is the same from the first verse

E----------------------------------------------------------------|
B----------------------------------------------------------------|
G-----0--0---2-4------------------0p2---4-2-------0--------------|
D-----------------4---2-2----0p2------------4-2------------------|
A----------------------------------------------------------------|
E----------------------------------------------------------------|
pre-chorus ( i will beeeee in the bar.......) starts at 00:33


E------------------------------------------------------------------|
B------------------------------------------------------------------|
G--------2--2/1----------------------2v----------------------------| 3x
D----------------4----2-2v----1-2----------------------------------|
A------------------------------------------------------------------|
E------------------------------------------------------------------|

change a little bit in second 00:49

E------------------------------------------------------------------|
B------------------------------------------------------------------|
G-----2--2/1---------2v----2--2/1-------------------------4v-------|
D--------------4-2-------------------4--2--1v-----1--2-------------|
A------------------------------------------------------------------|
E------------------------------------------------------------------|


chorus  1:01 ( yeahhh i made up your mind........
little fast
E------------------------------------------------------------------|
B-------7--6--4---3----------7--6--4---3---------------------------|
G--------8--6--5-3-3----------8--6--5-3-3--------------------------|
D------------------------------------------------------------------| 7x
A------------------------------------------------------------------|
E------------------------------------------------------------------|

the next parts of the song it repeats till the minute 3:07

if you want you can play this part like two guitars in one i like it


E-------------------------------------------------------------------|
B-------------------------------------------------------------------|
G--222-22-111-11--------------0p2----4--2---------------------------|
D----------------444-44---0p2-------------4---2---------------------|
A-------------------------------------------------------------------|
E-------------------------------------------------------------------|

E-------------------------------------------------------------------|
B-------------------------------------------------------------------|
G--222-22-111-11--------------0p2----4--2---------------------------|
D----------------444-44---0p2-------------4---2---------------------|
A-------------------------------------------------------------------|
E-------------------------------------------------------------------|

OUTRO
E----------------------------------------------------------------|
B----------------------------------------------------------------|
G-----0--0---2-4------------------0p2---4-2-------0--------------|
D-----------------4---2-2----0p2------------4-2------------------|
A----------------------------------------------------------------|
E----------------------------------------------------------------|
end

THESE ARE THE CHORDS FROM THE GUITAR 2
G     Bm          C
  The more you ignore me
    D         G
The closer I get
       Bm           C    D
You're wasting your time
G     Bm          C
  The more you ignore me
    D         G
The closer I get
       Bm           C    D
You're wasting your time

[Verse]
       Am          D            Am              D
I will be   In the bar  With my head  On the bar
     Am              Bm            Em
I am now   A central part  Of your mind's landscape
        Am              D                            G
Whether you care  Or do not  Yeah, I've made up your mind

G     Bm          C
  The more you ignore me
    D         G
The closer I get
       Bm           C    D
You're wasting your time
G     Bm          C
  The more you ignore me
    D         G
The closer I get
       Bm           C    D
You're wasting your time

[Verse]
  Am            D                   Am                   D
Beware!  I bear more grudges   Than lonely high court judges
         Am                         Bm                        Em
When you sleep  I will creep   Into your thoughts  Like a bad debt
               Am                         D                         G
That you can't pay  Take the easy way and give in  Yeah, and let me in

[Chorus] (G Bm C D)
Oh, let me in
Oh, let me
Oh, let me in

[Verse]
It's war
It's war
It's war
It's war
It's war war war war war
Let me in

[Chorus]
Oh, the closer I get
Oh, you musn't forget
Oh, the closer I get
Oh, the closer I
Tap to rate this tab
 
# A B C D E F G H I J K L M N O P Q R S T U V W X Y Z