Song name
# A B C D E F G H I J K L M N O P Q R S T U V W X Y Z

Morrissey - Seasick Yet Still Docked tab

Intro + Verse
   G                 Dmaj7            G               Dmaj7
E |--------------2---2-------------|--------------2---5---3---2---0-|
B |--2---3---5-----------5---3---2-|--2---3---5---------------------|
G |--------------------------------|--------------------------------|
D |--------------------------------|--------------------------------|
A |--------------------------------|--------------------------------|
E |--------------------------------|--------------------------------|

    Bm             F#m               A               D       E
E |--------------------------------|-----0---2---0------------------|
B |-0---3---2---0---2-------2------|--------------------------------|
G |---------------------2-------2--|--2----------------1-2-----1-2--|
D |--------------------------------|-----------------0-------2------|
A |--------------------------------|--------------------------------|
E |--------------------------------|--------------------------------|

    Bm             F#m               A               G       A
E |-------------------------2------|-----0---2---0------------------|
B |-0---3---2---0---2--------------|-------------------------2---2--|
G |---------------------2-------2--|--2----------------2-2-----2----|
D |--------------------------------|-----------------2--------------|
A |--------------------------------|--------------------------------|
E |--------------------------------|--------------------------------|


Final Chords

Bm    Bm+7    D       E

G     D       E       F#

Bm    Bm+7    D       E

G     D       E       F#



G     Dmaj7   G       Dmaj7

end with a G


 G  Dmaj7  Bm  F#m  A  D  E  F#  Bm7   

Order:
[00:23] Verse
[00:49] Verse
[01:15] Verse
[01:41] Verse
[02:07] Verse
[02:32] Verse
[02:58] Verse
[03:24] Verse
[03:50] Verse (Only first bar)
[03:59] Final Chords

 
Tap to rate this tab
# A B C D E F G H I J K L M N O P Q R S T U V W X Y Z