Song name
# A B C D E F G H I J K L M N O P Q R S T U V W X Y Z

Morrissey - Speedway tab

Speedway
Morrissey

Intro
G |--------------------------------|--------------------------------|
D |--------------------------------|--------------------------------|
A |-4---------------------------5--|-7------------------------------|
E |--------------------------------|-----------------------------5--|

G |--------------------------------|
D |--------------------------------|
A |--------------------------------|
E |-5---------------5---5x---------|

Chorus
G |--------------------------------|--------------------------------|
D |--------------------------------|--------------------------------|
A |-4---4---4---4---4---4---6---7--|-------------------------7------|
E |--------------------------------|-7---7---7---7---7---7-------5--|

G |--------------------------------|--------------------------------|
D |--------------------------------|--------------------------------|
A |-------------------------4------|--------------------------------|
E |-5---5---5---5---5---5-------7--|-0---0---0---0---2-^-0---2-^-0--|

Verse
G |--------------------------------|--------------------------------|
D |--------------------------------|--------------------------------|
A |-4---4---4---4---4---4---4---4--|-4---4---4---4---4---4---4---4\-|
E |--------------------------------|--------------------------------|

G |--------------------------------|--------------------------------|
D |-2---2---2---2---2---2---2---2--|-2---2---2---2---2---2---2---2--| 
A |--------------------------------|--------------------------------|
E |--------------------------------|--------------------------------|

G |--------------------------------|--------------------------------|
D |--------------------------------|--------------------------------|
A |--------------------------------|--------------------------------|
E |-5---5---5---5---5---5---5---5--|-5---5---5---5---5---5---5---5--|

G |--------------------------------|--------------------------------|
D |--------------------------------|--------------------------------|
A |--------------------------------|--------------------------------|
E |-4---4---4---4---4---4---4---4--|-4---4---4---4---4---4---4---4--|

End
G |--------------------------------|--------------------------------|
D |--------------------------------|--------------------------------|
A |--------------------------------|--------------------------------|
E |-5---5---5---5---5---5---5---5--|-5---5---4---4---2---2---0--(0)-|

G |--------------------------------|--------------------------------|
D |--------------------------------|--------------------------------|
A |--------------------------------|--------------------------------|
E |-0---0---0---0---0---0---0---0--|-2---2---2---2---2---2---2---2--|

G |--------------------------------|--------------------------------|
D |--------------------------------|--------------------------------|
A |--------------------------------|-7---7---7---7---9-^-7---9-^-7--|
E |-5---5---5---5---5---5---5---5--|--------------------------------|
G |--------------------------------|--------------------------------|

D |--------------------------------|--------------------------------|
A |-4---4---4---4---4---4---4---4--|-2---2---2---2---2---2---2---2--|
E |--------------------------------|--------------------------------|

Order:
[00:02] Intro
[00:17] Chorus 4x
[00:53] Verse 4x
[01:45] Chorus 2x
[02:02] Verse 4x (Stop at [02:48] (Skip last bar))

[02:52] Chorus 2x
[03:08] Chorus 2x (All of the rumors...)
[03:25] Chorus 2x (Without Last Bar)
[03:38] End

 
Tap to rate this tab
 
# A B C D E F G H I J K L M N O P Q R S T U V W X Y Z