Song name
# A B C D E F G H I J K L M N O P Q R S T U V W X Y Z

Morrissey - Picadilly Palare tab

Morrissey, Piccadilly Palare tab
Arranged for one guitar (w/ some 2nd guitar lines occasionally added in), mixing guitar 
lines from the live and recorded versions

Intro
guitar with overdrive
||------------2---0------------|
||---------4--------0----------|
||-----1-2---------------------|
||---2----------------2--------|
||-0---------------------------|
||-----------------------------|

Power chords – this follows the bass line in the recorded version
   F#m    A       F#m    D       F#m    E       F#m
||--------------|--------------|--------------|--------------||
||--------------|--------------|--------------|--------------||
||--------------|--------------|--------------|--------------||
||--------------|--------7--7--|--------9--9--|--------------||
||--4--4--7--7--|--4--4--5--5--|--4--4--7--7--|-4--4--2--3---|| x2
||--2--2--5--5--|--2--2--------|--2--2--------|-2--2--0--1---||

here is that Bass line...
G |-------------|--------------|--------------|--------------|
D |-------------|--------------|-------2--2---|--------------|
A |-------0--0--|--------5--5--|--------------|--------------|
E |-2--2--------|--2--2--------|--2--2--------|-2--2--0--1---|


...and the other guitar line you hear in the recorded version’s intro
||-4-4-2-4-2-4-2|-4-2----------|-4-4-2-4-2-4-2|-4-2-4/5------||
||--------------|----2-w/wah&OD|--------------|--------------||
||--------------|--------------|--------------|--------------||
||--------------|--------------|--------------|--------------||
||--------------|--------------|--------------|--------------||
||--------------|--------------|--------------|--------------||


After the intro is repeated, go to verse (mix of live & recorded versions)

Verse:
   F#m (staccato) B (let ring)   C#m            C#
||----2---2-----|---7---7----7-|---4---4---4--|---4---4---4--||
||----2---2-----|-----7--------|-----5--------|-----6--------||
||----2---2-----|-8--------8---|-4-------4----|-6-------6----||
||--------------|--------------|--------------|--------------||
||--4---4-------|--------------|--------------|--------------||
||--2---2-------|--------------|--------------|--------------||




   C#m      B     E        D     F#m     A      F#m
||-4-44-4---2---|-7-77-7---5---|--------------|--------------||
||-5-55-5---4---|-9-99-9---7---|--------------|--------------||
||-6-66-6---4---|-9-99-9---7---|--------------|--------------||
||-6-66-6---4---|-9-99-9---7---|--------------|--------------||
||--------------|--------------|--4--4--7--7--|-4--4--2--3---||
||--------------|--------------|--2--2--5--5--|-2--2--0--1---||


   F#m (staccato) B (let ring)   C#m            C#
||----2---2-----|---7---7----7-|---4---4---4--|---4---4---4--||
||----2---2-----|-----7--------|-----5--------|-----6--------||
||----2---2-----|-8--------8---|-4-------4----|-6-------6----||
||--------------|--------------|--------------|--------------||
||--4---4-------|--------------|--------------|--------------||
||--2---2-------|--------------|--------------|--------------||


   C#m      B     E        D    F#m     A      F#m
||-4-44-4---2---|-7-77-7---5---|-----0-------0|-----0--------||
||-5-55-5---4---|-9-99-9---7---|-------2------|-------2------||
||-6-66-6---4---|-9-99-9---7---|-2---------2--|-2------------||
||-6-66-6---4---|-9-99-9---7---|---4----------|---4----------||
||--------------|--------------|--------------|------------02||
||--------------|--------------|--------------|----------24--||


Chorus
  E (let ring)   D              A              D
||--------------|--------------|--------------|--------------||
||--5----5------|--3----3------|--2----2------|--3-3--2------||
||-----4---4----|-----2---2----|-----2---2----|---2-----2----||
||-6------------|-4------------|-2------------|-2------------||
||--------------|--------------|--------------|--------------||
||--------------|--------------|--------------|--------------||

||--------------|--------------|
||--------------|--------------|
||--------------|--------------|
||--------------|--------------|
||--4--4--7--7--|----0-2-------|
||--2--2--5--5--|2-4-----------|

  E              D              A              D
||--------------|--------------|--------------|--------------||
||--5----5------|--3----3------|--2----2------|--3-3--2------||
||-----4---4----|-----2---2----|-----2---2----|---2-----2----||
||-6------------|-4------------|-2------------|-2------------||
||--------------|--------------|--------------|--------------||
||--------------|--------------|--------------|--------------||

use the intro sequence once to bridge to next verse

||--------------|--------------|--------------|--------------||
||--------------|--------------|--------------|--------------||
||--------------|--------------|--------------|--------------||
||--------------|--------7--7--|--------9--9--|--------------||
||--4--4--7--7--|--4--4--5--5--|--4--4--7--7--|-4--4--2--3---||
||--2--2--5--5--|--2--2--------|--2--2--------|-2--2--0--1---||


Back to Verse
Then play the Chorus again,

then go into this Break: Play each chord once, with overdrive (let sustain)
E / G / A   pay twice, then to leave strum the A quickly,

then back to this version of the intro sequence

   F#m    A       F#m    D       F#m    E
||--------------|--------------|--------------|--------------||
||--------------|--------------|--------------|--------------||
||--------------|--------------|--------------|--------------||
||--------------|--------7--7--|--------9--9--|--------------||
||--4--4--7--7--|--4--4--5--5--|--4--4--7--7--|-----0-2------||
||--2--2--5--5--|--2--2--------|--2--2--------|-2-4----------||

OR play the guitar line
  F#m     A      F#m
||-----0-------0|-----0--------||
||-------2------|-------2------||
||-2---------2--|-2------------||
||---4----------|---4----------||
||--------------|------------02||
||--------------|----------24--||


Then back to the Chorus, and repeat several times.
End by playing the Intro sequence one more time as in the live version.


The rest of the bass lines:
Verse
G |-------------|---------------|---------------|-------------|
D |-----4-------|--------------1|-2---2---2-----|--3---3---3--|
A |-------------|--4/5----------|------------2--|-------------|
E |-2-----------|---------------|---------------|-------------|

G |--------------------------------|--------------------------------|
D |--------------------------------|--------------------------------|
A |-2---2---2---2---0---0----------|---------0---0------------------|
E |-----------2---2---------0---1--|-2---2-----------2---2---0---1--|

G |--------------------------------|--------------------------------|
D |--------------------------------|--------------------------------|
A |-2---2---2---2---0---0----------|---------0---0-----------0----2-|
E |-----------2---2---------0---1--|-2---2-----------2---4----------|

Chorus
G |------------------------------|--------------------------------|
D |-2---2-----2---0--------0-----|--------------------------------|
A |-------2------------0---------|-4-------2---0---5-------4---0--|
E |------------------------------|--------------------------------|

G |--------------------------------|
D |--------------------------------|
A |---------0---0-----------0---2--|
E |-2---2-----------2---4----------|

G |--------------------------------|--------------------------------|
D |-2-----------2---0-----------0--|--------------------------------|
A |---------2---------------0------|-4-------2---0---5-------4---0--|
E |--------------------------------|--------------------------------|


Break
G |--------------------------------|--------------------------------|
D |-2-----------0---2-----------0--|-------------0---------------0--|
A |---------2---------------2------|---------2-------0-------2------|
E |--------------------------------|-3------------------------------|

G |--------------------------------|--------------------------------|
D |-2-----------0---2-----------0--|-------------0---------------0--|
A |---------2---------------2------|---------2-------0-------2------|
E |--------------------------------|-3------------------------------|

G |--------------------------------|--------------------------------|
D |-------------------------0---0--|---------2---2------------------|
A |---------0---0------------------|-------------------------0---2--|
E |-2---2-----------2---2----------|-2---2-----------2---4----------|
Tap to rate this tab
# A B C D E F G H I J K L M N O P Q R S T U V W X Y Z