Song name
# A B C D E F G H I J K L M N O P Q R S T U V W X Y Z

Morrissey - We Hate It When Our Friends Become Sucessful tab

WE HATE IT WHEN OUR FRIENDS BECOME SUCCESSFUL

Intro

 riff 1
-2-2-2-4-2-|
-----------|
-----------|
-----------|
-----------|

F#   Abm    B    C#    Ebm    E    Abm    B C#

Verse
F#
-----2---|
-2-2---2-|
---------|
---------|
---------|
---------|

F#m   B    F#m     B

We hate it when our friends become successful
We hate it when our friends become successful

pre chorus
D      A      E            D      A      Abm     B C#

 D         A         E    Abm    B C#
------------------------ ------------|
------------------------ ------------|
-----------2------------ --------4-6-|
-----------2-----2-4---- -6------4-6-|
-5-4-5-4-2-0-2s4-------- -6--1-2-2-4-|
---------------------0-- -4----------|

Oh, look at those clothes
Now look at that face, it's so old
And such a video !
Well, it's really laughable

chorus
F#   Abm    B    C#    Ebm    E    Abm    B C#

Ha, ha, ha ...

We hate it when our friends become successful
And if they're Northern, that makes it even worse
And if we can destroy them
You bet your life we will
Destroy them
If we can hurt them
Well, we may as well ...
It's really laughable
Ha, ha, ha ...

Bridge

 Ebm     C# B            Abm    B C#
-6----------------------|
-7----------------------|
-8--------------------4-|
------------------4-6---|
------------2-4s6-------|
------------------------|


You see, it should've been me
It could've been me
Everybody knows
Everybody says so
They say :


"Ah, you have loads of songs
So many songs
More songs than they'd stand
Verse
Chorus
Middle eight
Break,

fade
F#
Just listen ..."
La, la-la, la-la

B  F
Tap to rate this tab
# A B C D E F G H I J K L M N O P Q R S T U V W X Y Z