Guitaretab - guitar tabs
Song name
# A B C D E F G H I J K L M N O P Q R S T U V W X Y Z

Morrissey - Dear God Please Help Me tab

INTRO:

C               Am            E              F             Fm

e|-------------|-------------|--------------|-------1-----|-------1-----|
B|-------1-----|-------1-----|-------0------|-----1---1---|-----1---1---|
G|-----0---0---|-----2---2---|-----1----1---|---2---------|---0---------|(X2)
D|---2-------2-|---2-------2-|---2--------2-|-3-----------|-3-----------|
A|-3-----------|-0-----------|-2------------|-------------|-------------|
E|-------------|-------------|--------------|-------------|-------------|


VERSES:

C               Am            E              F             Fm

e|-------------|-------------|--------------|-------1-----|-------1-----|
B|-------1-----|-------1-----|-------0------|-----1---1---|-----1---1---|
G|-----0---0---|-----2---2---|-----1----1---|---2---------|---0---------|(X3)
D|---2-------2-|---2-------2-|---2--------2-|-3-----------|-3-----------|
A|-3-----------|-0-----------|-2------------|-------------|-------------|
E|-------------|-------------|--------------|-------------|-------------|

I am walking through Rome
With my heart on a string
Dear God
Dear God please help me

And I am so very tired
Of doing the right thing
Dear God
Please help me

There are explosive kegs
Between my legs
Dear God
Please help me

BREAK 1: 

Dm              F             C             E             F

e|-------1-----|-------1-----|-------------|-------------|-------1-----|
B|-----3---3---|-----1---1---|-------1-----|-------0-----|-----1---1---|
G|---2-------2-|---2-------2-|-----0---0---|-----1---1---|---2-------2-|
D|-0-----------|-3-----------|---2-------2-|---2-------2-|-3-----------|
A|-------------|-------------|-3-----------|-2-----------|-------------|
E|-------------|-------------|-------------|-------------|-------------|


Dm               C             G            

e|-------1-----|-------------|-3-----------|
B|-----3---3---|-------1-----|-3-----------|
G|---2-------2-|-----0---0---|-------------|
D|-0-----------|---2-------2-|-------------|
A|-------------|-3-----------|-2-----------|
E|-------------|-------------|-3-----------|


BACK TO VERSE PATTERN:

C               Am            E              F             Fm

e|-------------|-------------|--------------|-------1-----|-------1-----|
B|-------1-----|-------1-----|-------0------|-----1---1---|-----1---1---|
G|-----0---0---|-----2---2---|-----1----1---|---2---------|---0---------|(X2)
D|---2-------2-|---2-------2-|---2--------2-|-3-----------|-3-----------|
A|-3-----------|-0-----------|-2------------|-------------|-------------|
E|-------------|-------------|--------------|-------------|-------------|
[ Tab from: http://www.guitaretab.com/m/morrissey/71602.html ]
Will you follow and know Ė
Know me more than you do
Track me down
And try to win me?

Then he motions to me
With his hand on my knee
Dear God
Did this kind of thing happen to you?

BREAK 2:


Dm              F             C             E             F

e|-------1-----|-------1-----|-------------|-------------|-------1-----|
B|-----3---3---|-----1---1---|-------1-----|-------0-----|-----1---1---|
G|---2-------2-|---2-------2-|-----0---0---|-----1---1---|---2-------2-|
D|-0-----------|-3-----------|---2-------2-|---2-------2-|-3-----------|
A|-------------|-------------|-3-----------|-2-----------|-------------|
E|-------------|-------------|-------------|-------------|-------------|

Dm              C             E             Dm            F

e|-------1-----|-------------|-------------|-------1-----|-------1-----|
B|-----3---3---|-------1-----|-------0-----|-----3---3---|-----1---1---|
G|---2-------2-|-----0---0---|-----1---1---|---2-------2-|---2-------2-|
D|-0-----------|---2-------2-|---2-------2-|-0-----------|-3-----------|
A|-------------|-3-----------|-2-----------|-------------|-------------|
E|-------------|-------------|-------------|-------------|-------------|

C             G            

e|-------------|-3-----------|
B|-------1-----|-3-----------|
G|-----0---0---|-------------|
D|---2-------2-|-------------|
A|-3-----------|-2-----------|
E|-------------|-3-----------|

BACK TO VERSE PATTERN:

C               Am            E              F             Fm

e|-------------|-------------|--------------|-------1-----|-------1-----|
B|-------1-----|-------1-----|-------0------|-----1---1---|-----1---1---|
G|-----0---0---|-----2---2---|-----1----1---|---2---------|---0---------|(X2)
D|---2-------2-|---2-------2-|---2--------2-|-3-----------|-3-----------|
A|-3-----------|-0-----------|-2------------|-------------|-------------|
E|-------------|-------------|--------------|-------------|-------------|

Now Iím spreading your legs
With mine in-between
Dear God 
If I could, I would help you

Now Iím walking through Rome
And there is no room to move
But the heart
Feels free

OUTRO:

C               Am            E              F             Fm

e|-------------|-------------|--------------|-------1-----|-------1-----|
B|-------1-----|-------1-----|-------0------|-----1---1---|-----1---1---|
G|-----0---0---|-----2---2---|-----1----1---|---2---------|---0---------|(X4)
D|---2-------2-|---2-------2-|---2--------2-|-3-----------|-3-----------|
A|-3-----------|-0-----------|-2------------|-------------|-------------|
E|-------------|-------------|--------------|-------------|-------------|

The heart feels free
The heart feels free
But the heart
Feels free

***

Moz needs a new band.

Related for Dear God Please Help Me tab