Song name
# A B C D E F G H I J K L M N O P Q R S T U V W X Y Z

Morrissey - Will Never Merry tab

Highlighted       Show chord diagrams
Will Never Merry
(Morrissey/Stephen Street)

This is the tap for the song as I am able to hear it on “Bona Drag”. Any additions, 
or comments are welcome!

VERSE 1:
Strum the chords once down

    F
I’m writing this to say
     Em7
In a gentle way
Eb             Dm
Thank you, but no…
       F               Em7
I will live my life as I
                 Eb   Dm
Will undoubtedly die… alone

BREAK 1:

	         F
2B	---11-10------|
3G	---------10---|
	         Em7
2B	---11-10------|
3G	---------12---|
	         Eb
2B	---11-10------|
3G	---------8----|
	              Dm
2B	---8-10-11-10------|
3G	--------------10---|
Play this all twice

VERSE 2:
Strum the chords again down once, but you may find similar fills in the verse like 
later in the second break. So just add them, if you want to.

    F
I’m writing this to say
     Em7
In a gentle way
Eb            Dm
Thank you…
       F               Em7
I will live my life as I
Eb                     Dm
Oh…
               F
For wether you stay
Or you stray
   Em7                   Eb                   Dm
An inbuilt guilt catches up with you
          F
And as it comes around to your place
   Em7                 Eb
At 5 a.m. it wakes you up
                      Dm
and it laughs in your face

BREAK 2:

	         F
2B	---11-10------------------|
3G	---------10—101010/1210---|
	         Em7
2B	---11-10------------------|
3G	---------12—121212/1412---|
	         Eb
2B	---11-10------------------|
3G	---------8—888/108--------|
                      Dm
2B	---8-10-11-10------------------|
3G	--------------10—101010/1210---|
Play this all a few times till fade
“/” means slide up.
Tap to rate this tab
# A B C D E F G H I J K L M N O P Q R S T U V W X Y Z