Song name
# A B C D E F G H I J K L M N O P Q R S T U V W X Y Z

Mors Principium Est - Sinners Defeat tab

aright, so i tabbed the whole song before already, just left the solo out cuz
 i didn't know it at the time and it's seemed like it'd take a while to
 learn... turns out, it's not very hard whatsoever, just requires a little
 bit o' speed.  

anyway, let's see if you guys like my solo tab as much as my tab for the
 song:

b=bend
r=release
p=pull off
h=hammer on
/=slide up
\=slide down
*=pinch harmonic
~=just a little wiggle :D

|---------------------------------------------------------------|
|-13-12-10---------13-12-10-12\10-------------------------------|
|----------12-11-9----------------12-11-9-11-11b12r11p9---------|
|-------------------------------------------------------10~~----|
|---------------------------------------------------------------|
|---------------------------------------------------------------|

|------------------------------------------------------------------------------|
|------------------------------------------------------------------------------|
|-12-11-9-------9-12p11----11\9------------------------------------------------|
|---------12-10---------12------12-10-9-10-10b12r10p9h10~~--9h10p9\7h9p7-------|
|------------------------------------------------------------------------10-/7~|
|------------------------------------------------------------------------------|
 
|-------------------------------------------------------------------------|
|-------------------------------------------------------------------------|
|-------------------------------------------12h14p12-12h14p12----------12-|
|----------------12-14p12----------------12-------------------14p12-------|
|----------12h14----------14p12----12h14----------------------------14----|
|-10h12/15----------------------15----------------------------------------|

|---------------------------------------------------------------------------------------|
|-12h15p12-12h15p12-------------12h15p12-12h15p12------------12h15p12-12h15p12----------|
|-------------------14p12----12------------------14p12----12-------------------14p12----|
|-------------------------14---------------------------14----------------------------14~|
|---------------------------------------------------------------------------------------|
|---------------------------------------------------------------------------------------|

           |EPIC---PART---------------------------------------|        
|-----------------------15-19b20r19-17-15-------------------------|
|-15b17~~~~----------17-------------------17p15h17b19r17p15h17~~~-|
|-----------------16----------------------------------------------|
|-----------16h17-------------------------------------------------|
|-----------------------------------------------------------------|
|-----------------------------------------------------------------|

|-12~~~~~-14~~~~~-15~~~~~-------------19~~~~~-------|
|-15b17~~-17b19~~-19b20~~-------------22b24~~-------|
|---------------------------------------------------|
|---------------------------------------------------|
|---------------------------------------------------|
|---------------------------------------------------|

|-12-15-14-12-----------------------------------|
|----------------------13-12-10-----------------|
|-------------14-12-11--------------------------|
|-------------------------------12-10-9---------|
|---------------------------------------12-10-9-|
|-----------------------------------------------|

|-------------------------------------------------------------------------|
|-15p13p12-15p13p12-13p12p10-13p12p10-12p10p8-12p10p8-10p8p7-10p8p7-5*~~~-|
|-------------------------------------------------------------------------|
|-------------------------------------------------------------------------|
|-------------------------------------------------------------------------|
|-------------------------------------------------------------------------|

btw, i've come across a few mistake on the tab for the whole song, but just a
 couple extra added notes that i assumed were there and after listenin to it
 i realized they weren't. so if any of you are knitpicky and wanna know where
 my fck up was, message me on here or myspace (M†LMKR) or somethin or other.
Tap to rate this tab
# A B C D E F G H I J K L M N O P Q R S T U V W X Y Z