Song name
# A B C D E F G H I J K L M N O P Q R S T U V W X Y Z

Morse Steve Band - Brave New World tab

-------------------------------------------------------------------------------
		    BRAVE NEW WORLD - Michael Schenker Group
-------------------------------------------------------------------------------
MSG
Brave New World
From: Written In The Sand (1996)
Tabbed by: malpka
Tuning: Standard


[FIG: 1]             p.h.
e|------------------------|------------------------|
B|------------------------|------------------------|
G|-----9----9----7--------|-----9----9----7--2-----|
D|-----9--x-9----7--------|-----9--x-9--x-7--2-----|
A|-----7--x-7----5---+2~~-|-----7--x-7--x-5--0-----|
E|--0---------------------|--0-----------------3~--|


[FIG: 2]
      |--p.h.--|              |--p.h.--|
e|------------------------|------------------------|
B|------------------------|------------------------|
G|------------------------|------------------------|
D|------------------------|------------------------|
A|-----7~-6~-5~-----------|----7.-6.-5.------------|
E|--0-----------7-6-5--3--|-0------------7-6-5--3--|

      |--p.h.--|              |--p.h.--|
e|------------------------|------------------------|
B|------------------------|------------------------|
G|------------------------|------------------------|
D|------------------------|------------------------|
A|-----7~-6~-5~-----------|----7.-6.-5.------------|
E|--0-----------7-6-5--3--|-0------------7-6-5--3--|


      |--p.h.--|              |--p.h.--|
e|------------------------|------------------------|
B|------------------------|------------------------|
G|------------------------|------------------------|
D|------------------------|------------------------|
A|-----7~-6~-5~-----------|----7.-6.-5.------------|
E|--0-----------7-6-5--3--|-0------------7-6-5--3--|

      |--p.h.--|              |--p.h.--|
e|------------------------|------------------------|
B|------------------------|------------------------|
G|------------------------|---------------2--------|
D|------------------------|---------------2--------|
A|-----7~-6~-5~-----------|----7.-6.-5.---0--------|
E|--0-----------7-6-5--3--|-0----------------------|


VERSE:
[FIG: 3]
  I've been down this road before
e|------------------------|------------------------|
B|------------------------|------------------------|
G|---9-9------------------|---9-9------------------|
D|-x-9-9------------------|-x-9-9------------------|
A|-x-7-7------------------|-x-7-7------------------|
E|-x-0-0------------------|-x-0-0----------7-6-5-3-|

  Like a fool comin' back for more
e|------------------------|------------------------|
B|------------------------|------------------------|
G|---9-9------------------|---9-9------------------|
D|-x-9-9------------------|-x-9-9------------------|
A|-x-7-7------------------|-x-7-7------------------|
E|-x-0-0------------------|-x-0-0----------7-6-5-3-|


  But I need what you have in store
e|------------------------|------------------------|
B|------------------------|------------------------|
G|---9-9------------------|---9-9------------------|
D|-x-9-9------------------|-x-9-9------------------|
A|-x-7-7------------------|-x-7-7------------------|
E|-x-0-0------------------|-x-0-0----------7-6-5-3-|

  I'll be comin' through your open door
e|------------------------|------------------------|
B|------------------------|------------------------|
G|---9-9------------------|---9-9------------------|
D|-x-9-9------------------|-x-9-9------------------|
A|-x-7-7------------------|-x-7-7------------------|
E|-x-0-0------------------|-x-0-0----------7-6-5-3-|


VERSE:
[FIG: 2]
I have seen those clouds of rain
In the open desert sky
I have tried to ease the pain
And spread my wings and fly


PRE-CHORUS:
[FIG: 4]
       Sometimes I         feel like crying
e|------------------------|------------------------|
B|------------------------|------------------------|
G|--2--2------------------|--5--5------------------|
D|--2--2------------------|--5--5--------5--5------|
A|--0--0------------------|--3--3--------5--5------|
E|------------------------|--------------3--3------|

              When it falls from my hand
e|------------------------|------------------------|
B|------------------------|------------------------|
G|--2--2------------------|----5-5-----------------|
D|--2--2------------------|-x--5-5----------5~-----|
A|--0--0------------------|-x--3-3----------5~-----|
E|------------------------|-----------------3~-----|


  And all our kingdoms
e|------------------------|------------------------|
B|------------------------|------------------------|
G|------------------------|--------------5~--------|
D|--3--3------------------|--5--5--------5~--------|
A|--3--3------------------|--5--5--------3~--------|
E|--1--1------------------|--3--3------------------|

   turn to sand
e|------------------------|------------------------|
B|------------------------|------------------------|
G|--2--2------------------|----5-5-----------------|
D|--2--2------------------|-x--5-5----------5~-----|
A|--0--0------------------|-x--3-3----------5~-----|
E|------------------------|-----------------3~-----|


CHORUS:
[FIG: 1]
But these are the days of wonder
This is our brave new world
This is the spell we're under
This is our brave new world


[FIG: 2]


VERSE:
[FIG: 3]
When you close your weary eyes
And you think of what you had


VERSE:
[FIG: 2]
Then the web of hurt and lies
Has changed the good to bad


PRE-CHORUS:
[FIG: 4]
Sometimes I feel like dyin'
When I reach for your hand
And all my kingdoms
Turn to sand


CHORUS:
[FIG: 1]


BRIDGE:
  What is the meaning    Of it all
e|------------------------|------------------------|
B|------------------------|------5-----------------|
G|------------------------|-------5-----5----------|
D|--3---------x--3--------|-------------5----------|
A|--3---------x--3--------|-------------3----------|
E|--1---------x--1--------|--3/6-------------------|

  What are we waiting for
e|--0h1p0-----------------|------------------------|
B|---------3--------------|--3----------5----------|
G|------------x--3--------|--3----------5----------|
D|------------x--3--------|--5----------5----------|
A|------------x--1--------|--5----------3----------|
E|------------------------|--3---------------------|

  Is it the calm        Before the storm
e|------------------------|------------------------|
B|------------------------|------5-----------------|
G|------------------------|-------5-----5----------|
D|--3---------x--3--------|-------------5----------|
A|--3---------x--3--------|-------------3----------|
E|--1---------x--1--------|--3/6-------------------|

  Tell me what lies behind the door
e|--0h1p0-----------------|--3---------------------|
B|---------3--------------|--5----------8----------|
G|------------x--3--------|--5----------7----------|
D|------------x--3--------|--5----------5----------|
A|------------x--1--------|--3----------5----------|
E|------------------------|------------------------|


SOLO:


CHORUS:
[FIG: 1]
But these are the days of wonder
This is our brave new world
This is the spell we're under
This is our brave new world


OUTRO:
e|------------------------|------------------------|
B|------------------------|------------------------|
G|------------------------|------------------------|
D|---------2p0------------|--------0-2-0---0-------|
A|-----0-2----------------|----0-2-------2---2-0---|
E|-0-3--------------------|-0-3------------------3-|

e|------------------------|------------------------|
B|------------------------|------------------------|
G|------------------------|----5-5-----------------|
D|---------2p0------------|-x--5-5----------5~-----|
A|-----0-2----------------|-x--3-3----------5~-----|
E|-0-3--------------------|-----------------3~-----|




| /  slide up
| \  slide down
| h  hammer-on
| p  pull-off
| ~  vibrato
| +  harmonic
| x  Mute note
===============================================================================
Tap to rate this tab
# A B C D E F G H I J K L M N O P Q R S T U V W X Y Z