Song name
# A B C D E F G H I J K L M N O P Q R S T U V W X Y Z

Mortal Love - All The Beauty tab

http://www.mortallove.com/main/index.php

Mortal Love - All The Beauty

Tuning: Drop D.


. Palm mute
~ Hold note


Intro (0:34): 
E |---------------------------------------------------------------------------|
B |---------------------------------------------------------------------------|  
G |---------------------------------------------------------------------------|  
D |---------------------------------------------------------------------------|x2
A |---1-1-1-1-1-1-1-1---1-1-1-1-1-1-1-1---6-6-6-6-6-6-6-6---2-2-2-2-2-2-2-2---|
D |---1-1-1-1-1-1-1-1---1-1-1-1-1-1-1-1---6-6-6-6-6-6-6-6---2-2-2-2-2-2-2-2---|



Verse (0:51): 
E |---------------------------------------------------------------------------|
B |---------------------------------------------------------------------------|  
G |---------------------------------------------------------------------------|  
D |---------------------------------------------------------------------------|x3
A |---1-1-1-1-1-1-1-1---1-1-1-1-1-1-1-1---6-6-6-6-6-6-6-6---2-2-2-2-2-2-2-2---|
D |---1-1-1-1-1-1-1-1---1-1-1-1-1-1-1-1---6-6-6-6-6-6-6-6---2-2-2-2-2-2-2-2---|
pm    . . . . . . . .   . . . . . . . .   . . . . . . . .   . . . . . . . .

E |---------------------------------------------------------------------------|
B |---------------------------------------------------------------------------|  
G |---------------------------------------------------------------------------|  
D |---------------------------------------------------------------------------|x1
A |---1-1-1-1-1-1-1-1---1-1-1-1-1-1-1-1---6-6-6-6-6-6-6-6---2-2-2-2-2-2-2-2---|
D |---1-1-1-1-1-1-1-1---1-1-1-1-1-1-1-1---6-6-6-6-6-6-6-6---2-2-2-2-2-2-2-2---|
pm    . . . . . . . .   . . . . . . . .   . . . . . . . .   



Chorus (1:26): 
E |---------------------------------------------------------------------------|
B |---------------------------------------------------------------------------|  
G |---------------------------------------------------------------------------|  
D |---------------------------------------------------------------------------|x2
A |---1~----------------------------------6~-----------------2~---------------|
D |---1~----------------------------------6~-----------------2~---------------|


Verse (1:43): 
E |---------------------------------------------------------------------------|
B |---------------------------------------------------------------------------|  
G |---------------------------------------------------------------------------|  
D |---------------------------------------------------------------------------|x3
A |---1-1-1-1-1-1-1-1---1-1-1-1-1-1-1-1---6-6-6-6-6-6-6-6---2-2-2-2-2-2-2-2---|
D |---1-1-1-1-1-1-1-1---1-1-1-1-1-1-1-1---6-6-6-6-6-6-6-6---2-2-2-2-2-2-2-2---|
pm    . . . . . . . .   . . . . . . . .   . . . . . . . .   . . . . . . . .

E |---------------------------------------------------------------------------|
B |---------------------------------------------------------------------------|  
G |---------------------------------------------------------------------------|  
D |---------------------------------------------------------------------------|x1
A |---1-1-1-1-1-1-1-1---1-1-1-1-1-1-1-1---6-6-6-6-6-6-6-6---2-2-2-2-2-2-2-2---|
D |---1-1-1-1-1-1-1-1---1-1-1-1-1-1-1-1---6-6-6-6-6-6-6-6---2-2-2-2-2-2-2-2---|
pm    . . . . . . . .   . . . . . . . .   . . . . . . . .   



Chorus (2:17): 
E |---------------------------------------------------------------------------|
B |---------------------------------------------------------------------------|  
G |---------------------------------------------------------------------------|  
D |---------------------------------------------------------------------------|x4
A |---1~----------------------------------6~-----------------2~---------------|
D |---1~----------------------------------6~-----------------2~---------------|



Breakdown (2:51): 
E |---------------------------------------------------------------------------|
B |---------------------------------------------------------------------------|  
G |---------------------------------------------------------------------------|  
D |---------------------------------------------------------------------------|x4
A |---1-1-1-1-1-1-1-1---1-1-1-1-1-1-1-1---6---8---9---11----------------------|
D |---1-1-1-1-1-1-1-1---1-1-1-1-1-1-1-1---6---8---9---11----------------------|
pm    . . . . . . . .   . . . . . . . . 

E |---------------------------------------------------------------------------|
B |---------------------------------------------------------------------------|  
G |---------------------------------------------------------------------------|  
D |---------------------------------------------------------------------------|x1
A |---1-1-1-1-1-1-1-1---1-1-1-1-1-1-1-1---11~-----4---8-----------------------|
D |---1-1-1-1-1-1-1-1---1-1-1-1-1-1-1-1---11~-----4---8-----------------------|
pm    . . . . . . . .   . . . . . . . . 



Chorus (3:34): 
E |---------------------------------------------------------------------------|
B |---------------------------------------------------------------------------|  
G |---------------------------------------------------------------------------|  
D |---------------------------------------------------------------------------|x4
A |---1~----------------------------------6~-----------------2~---------------|
D |---1~----------------------------------6~-----------------2~---------------|



Verse (4:26): 
E |---------------------------------------------------------------------------|
B |---------------------------------------------------------------------------|  
G |---------------------------------------------------------------------------|  
D |---------------------------------------------------------------------------|x3
A |---1-1-1-1-1-1-1-1---1-1-1-1-1-1-1-1---6-6-6-6-6-6-6-6---2-2-2-2-2-2-2-2---|
D |---1-1-1-1-1-1-1-1---1-1-1-1-1-1-1-1---6-6-6-6-6-6-6-6---2-2-2-2-2-2-2-2---|
pm    . . . . . . . .   . . . . . . . .   . . . . . . . .   . . . . . . . .

E |---------------------------------------------------------------------------|
B |---------------------------------------------------------------------------|  
G |---------------------------------------------------------------------------|  
D |---------------------------------------------------------------------------|x1
A |---1-1-1-1-1-1-1-1---1-1-1-1-1-1-1-1---6-6-6-6-6-6-6-6-------(fade in)2----|
D |---1-1-1-1-1-1-1-1---1-1-1-1-1-1-1-1---6-6-6-6-6-6-6-6-------(fade in)2----|
pm    . . . . . . . .   . . . . . . . .   . . . . . . . .   



Chorus (5:00): 
E |---------------------------------------------------------------------------|
B |---------------------------------------------------------------------------|  
G |---------------------------------------------------------------------------|  
D |---------------------------------------------------------------------------|x4
A |---1~----------------------------------6~-----------------2~---------------|
D |---1~----------------------------------6~-----------------2~---------------|



Outro (5:34): 
E |---------------------------------------------------------------------------|
B |---------------------------------------------------------------------------|  
G |---------------------------------------------------------------------------|  
D |---------------------------------------------------------------------------|x1
A |---1~----------------------------------------------------------------------|
D |---1~----------------------------------------------------------------------|



Tap to rate this tab
 
# A B C D E F G H I J K L M N O P Q R S T U V W X Y Z