Song name
# A B C D E F G H I J K L M N O P Q R S T U V W X Y Z

Mortal Love - I Want To Die tab

Intro starts with Piano or keyboard
When guitars comes in they play this.

 Intro
 
 Rhythm 
|-------------------------------------------------|
|-------------------------------------------------|
|-------------------------------------------------|
|-5--5--5--5--3--3--3--3--5--5--5--5--1--1--1--1--| 2x
|-5--5--5--5--3--3--3--3--5--5--5--5--1--1--1--1--|
|-5--5--5--5--3--3--3--3--5--5--5--5--1--1--1--1--|

 Lead
|-18~--17~--15~--23~--22~--20~--23~--17~----------|
|-----------------------------------------15~-----|
|-------------------------------------------------|
|-------------------------------------------------|
|-------------------------------------------------|
|-------------------------------------------------|

 VERSE
 Both Guitars
|-----------------------------------------------------------------|
|-----------------------------------------------------------------|
|-----------------------------------------------------------------|
|-----------------------------------------------------------------| 4x
|-5-5-5-5-5-5-5-5-3-3-3-3-3-3-3-3-5-5-5-5-5-5-5-5-1-1-1-1-1-1-1-1-|
|-5-5-5-5-5-5-5-5-3-3-3-3-3-3-3-3-5-5-5-5-5-5-5-5-1-1-1-1-1-1-1-1-|

 CHORUS

|-----------------------------|
|-----------------------------|
|-----------------------------| 2x
|--5~-------3~-------1~-------|
|--5~-------3~-------1~-------|
|--5~-------3~-------1~-------|

 SOLO
 Lead
|----------10------------------12~-----------10---------------10-13~--
|-11-10h11----11~--11-10h11-13------11-10h11----11~--11-10h11---------
|---------------------------------------------------------------------
|---------------------------------------------------------------------
|---------------------------------------------------------------------
|---------------------------------------------------------------------

----------10------------------12~-----------10---------------10-13~~~|
-11-10h11----11~--11-10h11-13------11-10h11----11*--11-10h11---------|
---------------------------------------------------------------------|
---------------------------------------------------------------------|
---------------------------------------------------------------------|
---------------------------------------------------------------------|

 Rhythm for solo
|----------------------------------------|
|----------------------------------------|
|----------------------------------------|
|-5~~~~~~~~~5~~~~~~~~5~~~~~~~~5~~~~~~~~--|
|-5~~~~~~~~~5~~~~~~~~5~~~~~~~~5~~~~~~~~--|
|-5~~~~~~~~~5~~~~~~~~5~~~~~~~~5~~~~~~~~--|


 VERSE
 Both Guitars
|-----------------------------------------------------------------|
|-----------------------------------------------------------------|
|-----------------------------------------------------------------|
|-----------------------------------------------------------------| 4x
|-5-5-5-5-5-5-5-5-3-3-3-3-3-3-3-3-5-5-5-5-5-5-5-5-1-1-1-1-1-1-1-1-|
|-5-5-5-5-5-5-5-5-3-3-3-3-3-3-3-3-5-5-5-5-5-5-5-5-1-1-1-1-1-1-1-1-|

 CHORUS

|-----------------------------|
|-----------------------------|
|-----------------------------| 2x
|--5~-------3~-------1~-------|
|--5~-------3~-------1~-------|
|--5~-------3~-------1~-------|

 INTERLUDE
 Rhythm
|------|               |-----|
|------| Through out   |-----|
|-5----|  INTERLUDE    |-----| End with this
|-5----|(P.M.for outro |--5--|
|-3----|  INTERLUDE)   |--5--|
|------|               |--5--|

 Lead
|----------------|
|-------4--------|
|---3-5---5------| 15x
|-5--------------|
|----------------|
|----------------|
 
 Finish the Lead with
|---------------|                                             |-------4-------|
|---3-5---------| 
|-5-------5~~~--|
|---------------|
|---------------|
  
 ***Then comes the Spoken part***

 after that repeat the SOLO with Same Rhythem

 *Repeat Verse*
 *Repeat Chorus*
 *Repeat Interlude*
__________________________________________________________________________
Thats it 
i think its almost accurate .
Please point out any mistakes
its a lovely song with a very very sweet kinda solo.
if you havnt heard of the band just listen to that song and play it 
and please let me know if the difficulty mentioned is suitable
i actually play the solo in standard tuning then i wrote in A#,
so i think 11* in solo may not sound good, i m not sure though
__________________________________________________________________________
Tap to rate this tab
# A B C D E F G H I J K L M N O P Q R S T U V W X Y Z