Song name
# A B C D E F G H I J K L M N O P Q R S T U V W X Y Z

Mortal Plague - Winter Is Neverending tab

     W                   W
D||-------------------|-------------------|
A||-------------------|-------------------|
F||-------------------|-------------------|
C||--0----------------|--L----------------|
G||--0----------------|--L----------------|
C||--0----------------|--L----------------|


  W                   H        H
-------------------|--------------------|
-------------------|--------------------|
-------------------|--------------------|
--3----------------|--6--------5--------|
--3----------------|--6--------5--------|
--3----------------|--6--------5--------|


  W                   W
-------------------|-------------------|
-------------------|-------------------|
-------------------|-------------------|
--0----------------|--L----------------|
--0----------------|--L----------------|
--0----------------|--L----------------|


  W                   H        H
-------------------|--------------------|
-------------------|--------------------|
-------------------|--------------------|
--3----------------|--6--------1--------|
--3----------------|--6--------1--------|
--3----------------|--6--------1--------|


  W                   W
-------------------|-------------------|
-------------------|-------------------|
-------------------|-------------------|
--0----------------|--L----------------|
--0----------------|--L----------------|
--0----------------|--L----------------|


  W                   H        H
-------------------|--------------------|
-------------------|--------------------|
-------------------|--------------------|
--3----------------|--6--------5--------|
--3----------------|--6--------5--------|
--3----------------|--6--------5--------|


  W                   W
-------------------|-------------------|
-------------------|-------------------|
-------------------|-------------------|
--0----------------|--L----------------|
--0----------------|--L----------------|
--0----------------|--L----------------|


  W                   H        H
-------------------|--------------------|
-------------------|--------------------|
-------------------|--------------------|
--3----------------|--6--------1--------|
--3----------------|--6--------1--------|
--3----------------|--6--------1--------|


  W                   W
-------------------|-------------------|
-------------------|-------------------|
-------------------|-------------------|
--0----------------|--L----------------|
--0----------------|--L----------------|
--0----------------|--L----------------|


  W                   H        H
-------------------|--------------------|
-------------------|--------------------|
-------------------|--------------------|
--3----------------|--6--------5--------|
--3----------------|--6--------5--------|
--3----------------|--6--------5--------|


  W                   W
-------------------|-------------------|
-------------------|-------------------|
-------------------|-------------------|
--0----------------|--L----------------|
--0----------------|--L----------------|
--0----------------|--L----------------|


  W                   H        H
-------------------|--------------------|
-------------------|--------------------|
-------------------|--------------------|
--3----------------|--6--------1--------|
--3----------------|--6--------1--------|
--3----------------|--6--------1--------|


  W                   W
-------------------|-------------------|
-------------------|-------------------|
-------------------|-------------------|
--0----------------|--L----------------|
--0----------------|--L----------------|
--0----------------|--L----------------|


  W                   H        H
-------------------|--------------------|
-------------------|--------------------|
-------------------|--------------------|
--3----------------|--6--------5--------|
--3----------------|--6--------5--------|
--3----------------|--6--------5--------|


  W                   W
-------------------|-------------------|
-------------------|-------------------|
-------------------|-------------------|
--0----------------|--L----------------|
--0----------------|--L----------------|
--0----------------|--L----------------|


  W                   H        H
-------------------|--------------------|
-------------------|--------------------|
-------------------|--------------------|
--3----------------|--6--------1--------|
--3----------------|--6--------1--------|
--3----------------|--6--------1--------|


  |--3--|  |--3--|  |--3--|  |--3--|
  E  E  E  E  E  E  E  E  E  E  E  E
--------------------------------------|
--------------------------------------|
--------------------------------------|
--------------------------------------|
--0--0--0--0--------------------------|
--0--0--0--0--------------------------|


       |--3--|
  Q    E  E  E  E  E  E  E
----------------------------|
----------------------------|
----------------------------|
----------------------------|
-------0--0--0--0-----0-----|
-------0--0--0--0-----0-----|


  |--3--|  |--3--|  |--3--|  |--3--|
  E  E  E  E  E  E  E  E  E  E  E  E
--------------------------------------|
--------------------------------------|
--------------------------------------|
--------------------------------------|
--3--3--3--3--------------------------|
--3--3--3--3--------------------------|


       |--3--|
  Q    E  E  E  E  E  E  E
----------------------------|
----------------------------|
----------------------------|
----------------------------|
-------1--1--1--1-----1-----|
-------1--1--1--1-----1-----|


  |--3--|  |--3--|  |--3--|  |--3--|
  E  E  E  E  E  E  E  E  E  E  E  E
--------------------------------------|
--------------------------------------|
--------------------------------------|
--------------------------------------|
--0--0--0--0--------------------------|
--0--0--0--0--------------------------|


       |--3--|
  Q    E  E  E  E  E  E  E
----------------------------|
----------------------------|
----------------------------|
----------------------------|
-------0--0--0--0-----0-----|
-------0--0--0--0-----0-----|


  |--3--|  |--3--|  |--3--|  |--3--|
  E  E  E  E  E  E  E  E  E  E  E  E
--------------------------------------|
--------------------------------------|
--------------------------------------|
--------------------------------------|
--7--7--7--7--------------------------|
--7--7--7--7--------------------------|


       |--3--|
  Q    E  E  E  E  E  E  E
----------------------------|
----------------------------|
----------------------------|
----------------------------|
-------6--6--6--6-----6-----|
-------6--6--6--6-----6-----|


  |--3--|  |--3--|  |--3--|  |--3--|
  E  E  E  E  E  E  E  E  E  E  E  E
--------------------------------------|
--------------------------------------|
--------------------------------------|
--------------------------------------|
--0--0--0--0--------------------------|
--0--0--0--0--------------------------|


       |--3--|
  Q    E  E  E  E  E  E  E
----------------------------|
----------------------------|
----------------------------|
----------------------------|
-------0--0--0--0-----0-----|
-------0--0--0--0-----0-----|


  |--3--|  |--3--|  |--3--|  |--3--|
  E  E  E  E  E  E  E  E  E  E  E  E
--------------------------------------|
--------------------------------------|
--------------------------------------|
--------------------------------------|
--3--3--3--3--------------------------|
--3--3--3--3--------------------------|


       |--3--|
  Q    E  E  E  E  E  E  E
----------------------------|
----------------------------|
----------------------------|
----------------------------|
-------1--1--1--1-----1-----|
-------1--1--1--1-----1-----|


  |--3--|  |--3--|  |--3--|  |--3--|
  E  E  E  E  E  E  E  E  E  E  E  E
--------------------------------------|
--------------------------------------|
--------------------------------------|
--------------------------------------|
--0--0--0--0--------------------------|
--0--0--0--0--------------------------|


       |--3--|
  Q    E  E  E  E  E  E  E
----------------------------|
----------------------------|
----------------------------|
----------------------------|
-------0--0--0--0-----0-----|
-------0--0--0--0-----0-----|


  |--3--|  |--3--|  |--3--|  |--3--|
  E  E  E  E  E  E  E  E  E  E  E  E
--------------------------------------|
--------------------------------------|
--------------------------------------|
--------------------------------------|
--7--7--7--7--------------------------|
--7--7--7--7--------------------------|


       |--3--|
  Q    E  E  E  E  E  E  E
----------------------------|
----------------------------|
----------------------------|
----------------------------|
-------6--6--6--6-----6-----|
-------6--6--6--6-----6-----|


  |--3--|  |--3--|  |--3--|  |--3--|
  E  E  E  E  E  E  E  E  E  E  E  E
--------------------------------------|
--------------------------------------|
--------------------------------------|
--------------------------------------|
--0--0--0--0--------------------------|
--0--0--0--0--------------------------|


       |--3--|
  Q    E  E  E  E  E  E  E
----------------------------|
----------------------------|
----------------------------|
----------------------------|
-------0--0--0--0-----0-----|
-------0--0--0--0-----0-----|


  |--3--|  |--3--|  |--3--|  |--3--|
  E  E  E  E  E  E  E  E  E  E  E  E
--------------------------------------|
--------------------------------------|
--------------------------------------|
--------------------------------------|
--3--3--3--3--------------------------|
--3--3--3--3--------------------------|


       |--3--|
  Q    E  E  E  E  E  E  E
----------------------------|
----------------------------|
----------------------------|
----------------------------|
-------1--1--1--1-----1-----|
-------1--1--1--1-----1-----|


  |--3--|  |--3--|  |--3--|  |--3--|
  E  E  E  E  E  E  E  E  E  E  E  E
--------------------------------------|
--------------------------------------|
--------------------------------------|
--------------------------------------|
--0--0--0--0--------------------------|
--0--0--0--0--------------------------|


       |--3--|
  Q    E  E  E  E  E  E  E
----------------------------|
----------------------------|
----------------------------|
----------------------------|
-------0--0--0--0-----0-----|
-------0--0--0--0-----0-----|


  |--3--|  |--3--|  |--3--|  |--3--|
  E  E  E  E  E  E  E  E  E  E  E  E
--------------------------------------|
--------------------------------------|
--------------------------------------|
--------------------------------------|
--7--7--7--7--------------------------|
--7--7--7--7--------------------------|


       |--3--|
  Q    E  E  E  E  E  E  E
----------------------------|
----------------------------|
----------------------------|
----------------------------|
-------6--6--6--6-----6-----|
-------6--6--6--6-----6-----|


  |--3--|  |--3--|  |--3--|  |--3--|
  E  E  E  E  E  E  E  E  E  E  E  E
--------------------------------------|
--------------------------------------|
--------------------------------------|
--------------------------------------|
--0--0--0--0--------------------------|
--0--0--0--0--------------------------|


       |--3--|
  Q    E  E  E  E  E  E  E
----------------------------|
----------------------------|
----------------------------|
----------------------------|
-------0--0--0--0-----0-----|
-------0--0--0--0-----0-----|


  |--3--|  |--3--|  |--3--|  |--3--|
  E  E  E  E  E  E  E  E  E  E  E  E
--------------------------------------|
--------------------------------------|
--------------------------------------|
--------------------------------------|
--3--3--3--3--------------------------|
--3--3--3--3--------------------------|


       |--3--|
  Q    E  E  E  E  E  E  E
----------------------------|
----------------------------|
----------------------------|
----------------------------|
-------1--1--1--1-----1-----|
-------1--1--1--1-----1-----|


  |--3--|  |--3--|  |--3--|  |--3--|
  E  E  E  E  E  E  E  E  E  E  E  E
--------------------------------------|
--------------------------------------|
--------------------------------------|
--------------------------------------|
--0--0--0--0--------------------------|
--0--0--0--0--------------------------|


       |--3--|
  Q    E  E  E  E  E  E  E
----------------------------|
----------------------------|
----------------------------|
----------------------------|
-------0--0--0--0-----0-----|
-------0--0--0--0-----0-----|


  |--3--|  |--3--|  |--3--|  |--3--|
  E  E  E  E  E  E  E  E  E  E  E  E
--------------------------------------|
--------------------------------------|
--------------------------------------|
--------------------------------------|
--7--7--7--7--------------------------|
--7--7--7--7--------------------------|


       |--3--|
  Q    E  E  E  E  E  E  E
----------------------------|
----------------------------|
----------------------------|
----------------------------|
-------6--6--6--6-----6-----|
-------6--6--6--6-----6-----|


  Q    Q    Q    Q
----------------------|
-----------------6----|
------------7---------|
-------6--------------|
--5-------------------|
----------------------|


  Q    Q    Q    Q
----------------------|
----------------------|
--7-------------------|
-------6---------6----|
------------5---------|
----------------------|


  Q    Q    Q    Q
----------------------|
-------6--------------|
--7---------7---------|
-----------------6----|
----------------------|
----------------------|


  Q    Q    Q    Q
----------------------|
-----------------5----|
------------6---------|
-------5--------------|
--4-------------------|
----------------------|


  Q    Q    Q    Q
----------------------|
----------------------|
--6-------------------|
-------5---------5----|
------------4---------|
----------------------|


  Q    Q    Q    Q
----------------------|
-------5--------------|
--6---------6---------|
-----------------5----|
----------------------|
----------------------|


  Q    Q    Q    Q
----------------------|
-----------------6----|
------------7---------|
-------6--------------|
--5-------------------|
----------------------|


  Q    Q    Q    Q
----------------------|
----------------------|
--7-------------------|
-------6---------6----|
------------5---------|
----------------------|


  Q    Q    Q    Q
----------------------|
-------6--------------|
--7---------7---------|
-----------------6----|
----------------------|
----------------------|


  Q    Q    Q    Q
----------------------|
-----------------5----|
------------6---------|
-------5--------------|
--4-------------------|
----------------------|


  Q    Q    Q    Q
----------------------|
----------------------|
--6-------------------|
-------5---------5----|
------------4---------|
----------------------|


  Q    Q    Q    Q
----------------------|
-------5--------------|
--6---------6---------|
-----------------5----|
----------------------|
----------------------|


  Q    Q    Q    Q
----------------------|
-----------------6----|
------------7---------|
-------6--------------|
--5-------------------|
----------------------|


  Q    Q    Q    Q
----------------------|
----------------------|
--7-------------------|
-------6---------6----|
------------5---------|
----------------------|


  Q    Q    Q    Q
----------------------|
-------6--------------|
--7---------7---------|
-----------------6----|
----------------------|
----------------------|


  Q    Q    Q    Q
----------------------|
-----------------5----|
------------6---------|
-------5--------------|
--4-------------------|
----------------------|


  Q    Q    Q    Q
----------------------|
----------------------|
--6-------------------|
-------5---------5----|
------------4---------|
----------------------|


  Q    Q    Q    Q
----------------------|
-------5--------------|
--6---------6---------|
-----------------5----|
----------------------|
----------------------|


  Q    Q    Q    Q
----------------------|
-----------------6----|
------------7---------|
-------6--------------|
--5-------------------|
----------------------|


  Q    Q    Q    Q
----------------------|
----------------------|
--7-------------------|
-------6---------6----|
------------5---------|
----------------------|


  Q    Q    Q    Q
----------------------|
-------6--------------|
--7---------7---------|
-----------------6----|
----------------------|
----------------------|


  Q    Q    Q    Q
----------------------|
-----------------5----|
------------6---------|
-------5--------------|
--4-------------------|
----------------------|


  Q    Q    Q    Q
----------------------|
----------------------|
--6-------------------|
-------5---------5----|
------------4---------|
----------------------|


  Q    Q    Q    Q       W
----------------------|-------------------|
-------5--------------|-------------------|
--6---------6---------|-------------------|
-----------------5----|--0----------------|
----------------------|--0----------------|
----------------------|--0----------------|


  Q    Q    H           Q    H.
---------------------|--------------------|
---------------------|--------------------|
---------------------|--------------------|
--2----3----6--------|--L----2------------|
--2----3----6--------|--L----2------------|
--2----3----6--------|--L----2------------|


  W                   Q    Q    H
-------------------|---------------------|
-------------------|---------------------|
-------------------|---------------------|
--0----------------|--2----3----1--------|
--0----------------|--2----3----1--------|
--0----------------|--2----3----1--------|


  Q    H.
--------------------|
--------------------|
--------------------|
--L----3------------|
--L----3------------|
--L----3------------|


  Q    E  E  E  E  Q
------------------------|
--6----6--6--6--6--6----|
--7----7--7--7--7--7----|
--7----7--7--7--7--7----|
--5----5--5--5--5--5----|
--0----0--0--0--0--0----|


  E  E  E  E   Q     E   E
----------------------------|
--6--6--6--6---9-----9---9--|
--7--7--7--7--10----10--10--|
--7--7--7--7--10----10--10--|
--5--5--5--5---8-----8---8--|
--0--0--0--0---0-----0---0--|


   E   E  Q    E  E  E  E
---------------------------|
---9---9--5----5--5--5--5--|
--10--10--6----6--6--6--6--|
--10--10--6----6--6--6--6--|
---8---8--4----4--4--4--4--|
---0---0--0----0--0--0--0--|


  Q    E  E  E  E  Q
------------------------|
--6----6--6--6--6--6----|
--7----7--7--7--7--7----|
--7----7--7--7--7--7----|
--5----5--5--5--5--5----|
--0----0--0--0--0--0----|


  E  E  E  E  Q    E  E
-------------------------|
--6--6--6--6--2----2--2--|
--7--7--7--7--3----3--3--|
--7--7--7--7--3----3--3--|
--5--5--5--5--1----1--1--|
--0--0--0--0--0----0--0--|


  E  E  Q    E  E  E  E
-------------------------|
--2--2--5----5--5--5--5--|
--3--3--6----6--6--6--6--|
--3--3--6----6--6--6--6--|
--1--1--4----4--4--4--4--|
--0--0--0----0--0--0--0--|


  Q    E  E  E  E  Q
------------------------|
--6----6--6--6--6--6----|
--7----7--7--7--7--7----|
--7----7--7--7--7--7----|
--5----5--5--5--5--5----|
--0----0--0--0--0--0----|


  E  E  E  E   Q     E   E
----------------------------|
--6--6--6--6---9-----9---9--|
--7--7--7--7--10----10--10--|
--7--7--7--7--10----10--10--|
--5--5--5--5---8-----8---8--|
--0--0--0--0---0-----0---0--|


   E   E  Q    E  E  E  E
---------------------------|
---9---9--5----5--5--5--5--|
--10--10--6----6--6--6--6--|
--10--10--6----6--6--6--6--|
---8---8--4----4--4--4--4--|
---0---0--0----0--0--0--0--|


  Q    E  E  E  E  Q
------------------------|
--6----6--6--6--6--6----|
--7----7--7--7--7--7----|
--7----7--7--7--7--7----|
--5----5--5--5--5--5----|
--0----0--0--0--0--0----|


  E  E  E  E  Q    E  E
-------------------------|
--6--6--6--6--2----2--2--|
--7--7--7--7--3----3--3--|
--7--7--7--7--3----3--3--|
--5--5--5--5--1----1--1--|
--0--0--0--0--0----0--0--|


  E  E  Q    E  E  E  E
-------------------------|
--2--2--5----5--5--5--5--|
--3--3--6----6--6--6--6--|
--3--3--6----6--6--6--6--|
--1--1--4----4--4--4--4--|
--0--0--0----0--0--0--0--|


  E  E  E  E  E  E  E  E
--------------------------|
--6--6--6--6--6--6--6--6--|
--7--7--7--7--7--7--7--7--|
--7--7--7--7--7--7--7--7--|
--5--5--5--5--5--5--5--5--|
--0--0--0--0--0--0--0--0--|


  E  E  E  E   E   E   E   E
------------------------------|
--6--6--6--6---9---9---9---9--|
--7--7--7--7--10--10--10--10--|
--7--7--7--7--10--10--10--10--|
--5--5--5--5---8---8---8---8--|
--0--0--0--0---0---0---0---0--|


   E   E  E  E  E  E  E  E
----------------------------|
---9---9--5--5--5--5--5--5--|
--10--10--6--6--6--6--6--6--|
--10--10--6--6--6--6--6--6--|
---8---8--4--4--4--4--4--4--|
---0---0--0--0--0--0--0--0--|


  E  E  E  E  E  E  E  E
--------------------------|
--6--6--6--6--6--6--6--6--|
--7--7--7--7--7--7--7--7--|
--7--7--7--7--7--7--7--7--|
--5--5--5--5--5--5--5--5--|
--0--0--0--0--0--0--0--0--|


  E  E  E  E  E  E  E  E
--------------------------|
--6--6--6--6--2--2--2--2--|
--7--7--7--7--3--3--3--3--|
--7--7--7--7--3--3--3--3--|
--5--5--5--5--1--1--1--1--|
--0--0--0--0--0--0--0--0--|


  E  E  E  E  E  E  E  E
--------------------------|
--2--2--------------------|
--3--3--------------------|
--3--3--2--2--2--2--2--2--|
--1--1--2--2--2--2--2--2--|
--0--0--2--2--2--2--2--2--|


  E  E  E  E  E  E  E  E
--------------------------|
--6--6--6--6--6--6--6--6--|
--7--7--7--7--7--7--7--7--|
--7--7--7--7--7--7--7--7--|
--5--5--5--5--5--5--5--5--|
--0--0--0--0--0--0--0--0--|


  E  E  E  E   E   E   E   E
------------------------------|
--6--6--6--6---9---9---9---9--|
--7--7--7--7--10--10--10--10--|
--7--7--7--7--10--10--10--10--|
--5--5--5--5---8---8---8---8--|
--0--0--0--0---0---0---0---0--|


   E   E  E  E  E  E  E  E
----------------------------|
---9---9--5--5--5--5--5--5--|
--10--10--6--6--6--6--6--6--|
--10--10--6--6--6--6--6--6--|
---8---8--4--4--4--4--4--4--|
---0---0--0--0--0--0--0--0--|


  E  E  E  E  E  E  E  E
--------------------------|
--6--6--6--6--6--6--6--6--|
--7--7--7--7--7--7--7--7--|
--7--7--7--7--7--7--7--7--|
--5--5--5--5--5--5--5--5--|
--0--0--0--0--0--0--0--0--|


  E  E  E  E  E  E  E  E
--------------------------|
--6--6--6--6--2--2--2--2--|
--7--7--7--7--3--3--3--3--|
--7--7--7--7--3--3--3--3--|
--5--5--5--5--1--1--1--1--|
--0--0--0--0--0--0--0--0--|


  E  E  E  E  E  E  E  E
--------------------------|
--2--2--------------------|
--3--3--------------------|
--3--3--2--2--2--2--2--2--|
--1--1--2--2--2--2--2--2--|
--0--0--2--2--2--2--2--2--|


  E  E  E  E  E  E  E  E
--------------------------|
--6--6--6--6--6--6--6--6--|
--7--7--7--7--7--7--7--7--|
--7--7--7--7--7--7--7--7--|
--5--5--5--5--5--5--5--5--|
--0--0--0--0--0--0--0--0--|


  E  E  E  E   E   E   E   E
------------------------------|
--6--6--6--6---9---9---9---9--|
--7--7--7--7--10--10--10--10--|
--7--7--7--7--10--10--10--10--|
--5--5--5--5---8---8---8---8--|
--0--0--0--0---0---0---0---0--|


   E   E  E  E  E  E  E  E
----------------------------|
---9---9--5--5--5--5--5--5--|
--10--10--6--6--6--6--6--6--|
--10--10--6--6--6--6--6--6--|
---8---8--4--4--4--4--4--4--|
---0---0--0--0--0--0--0--0--|


  E  E  E  E  E  E  E  E
--------------------------|
--6--6--6--6--6--6--6--6--|
--7--7--7--7--7--7--7--7--|
--7--7--7--7--7--7--7--7--|
--5--5--5--5--5--5--5--5--|
--0--0--0--0--0--0--0--0--|


  E  E  E  E  E  E  E  E
--------------------------|
--6--6--6--6--2--2--2--2--|
--7--7--7--7--3--3--3--3--|
--7--7--7--7--3--3--3--3--|
--5--5--5--5--1--1--1--1--|
--0--0--0--0--0--0--0--0--|


  E  E  E  E  E  E  E  E
--------------------------|
--2--2--------------------|
--3--3--------------------|
--3--3--2--2--2--2--2--2--|
--1--1--2--2--2--2--2--2--|
--0--0--2--2--2--2--2--2--|


  E  E  E  E  E  E  E  E
--------------------------|
--6--6--6--6--6--6--6--6--|
--7--7--7--7--7--7--7--7--|
--7--7--7--7--7--7--7--7--|
--5--5--5--5--5--5--5--5--|
--0--0--0--0--0--0--0--0--|


  E  E  E  E   E   E   E   E
------------------------------|
--6--6--6--6---9---9---9---9--|
--7--7--7--7--10--10--10--10--|
--7--7--7--7--10--10--10--10--|
--5--5--5--5---8---8---8---8--|
--0--0--0--0---0---0---0---0--|


   E   E  E  E  E  E  E  E
----------------------------|
---9---9--5--5--5--5--5--5--|
--10--10--6--6--6--6--6--6--|
--10--10--6--6--6--6--6--6--|
---8---8--4--4--4--4--4--4--|
---0---0--0--0--0--0--0--0--|


  E  E  E  E  E  E  E  E
--------------------------|
--6--6--6--6--6--6--6--6--|
--7--7--7--7--7--7--7--7--|
--7--7--7--7--7--7--7--7--|
--5--5--5--5--5--5--5--5--|
--0--0--0--0--0--0--0--0--|


  E  E  E  E  E  E  E  E
--------------------------|
--6--6--6--6--2--2--2--2--|
--7--7--7--7--3--3--3--3--|
--7--7--7--7--3--3--3--3--|
--5--5--5--5--1--1--1--1--|
--0--0--0--0--0--0--0--0--|


  E  E  E  E  E  E  E  E
--------------------------|
--2--2--------------------|
--3--3--------------------|
--3--3--2--2--2--2--2--2--|
--1--1--2--2--2--2--2--2--|
--0--0--2--2--2--2--2--2--|


  E  E  E  E  E  E  E  E
--------------------------|
--------------------------|
--------------------------|
--0-----------------1-----|
--0-----------------1-----|
--0-----------------1-----|


  E  E  E  E  E  E  E  E
--------------------------|
--------------------------|
--------------------------|
--------------0-----------|
--------------0-----------|
--------------0-----------|


  E  E  E  E  E  E  E  E
--------------------------|
--------------------------|
--------------------------|
--------------------------|
--------------------------|
--------------------------|


  E  E  E  E  E  E  E  E
--------------------------|
--------------------------|
--------------------------|
--0-----------------1-----|
--0-----------------1-----|
--0-----------------1-----|


  E  E  E  E  E  E  E  E
--------------------------|
--------------------------|
--------------------7--6--|
-----------------7--------|
--------------8-----------|
--------------------------|


  E  E  E  E  E  E  E  E
--------------------------|
--------------------------|
--------------7--6--5--6--|
--8--5-----7--------------|
--------8-----------------|
--------------------------|


  S S S S S S S S S S S S S S S S
----------------------------------|
----------------------------------|
----------------------------------|
----------------------------------|
----------5-5-5-5-5-5-5-5-4-4-5-5-|
--0-0-0-0-------------------------|


  S S S S S S S S Q    Q
----------------------------|
----------------------------|
----------------------------|
------------------3----6----|
--4-4-4-4-4-4-1-1-3----6----|
------------------3----6----|


  S S S S S S S S S S S S S S S S
----------------------------------|
----------------------------------|
----------------------------------|
----------------------------------|
----------5-5-5-5-5-5-5-5-4-4-5-5-|
--0-0-0-0-------------------------|


  S S S S S S S S Q    Q
----------------------------|
----------------------------|
----------------------------|
------------------6----1----|
--7-7-7-7-7-7-8-8-6----1----|
------------------6----1----|


  S S S S S S S S S S S S S S S S
----------------------------------|
----------------------------------|
----------------------------------|
----------------------------------|
----------5-5-5-5-5-5-5-5-4-4-5-5-|
--0-0-0-0-------------------------|


  S S S S S S S S Q    Q
----------------------------|
----------------------------|
----------------------------|
------------------3----6----|
--4-4-4-4-4-4-1-1-3----6----|
------------------3----6----|


  S S S S S S S S S S S S S S S S
----------------------------------|
----------------------------------|
----------------------------------|
----------------------------------|
----------5-5-5-5-5-5-5-5-4-4-5-5-|
--0-0-0-0-------------------------|


  S S S S S S S S Q    Q
----------------------------|
----------------------------|
----------------------------|
------------------6----1----|
--7-7-7-7-7-7-8-8-6----1----|
------------------6----1----|


  S S S S S S S S S S S S S S S S
----------------------------------|
----------------------------------|
----------------------------------|
----------------------------------|
----------5-5-5-5-4-4-4-4-5-5-5-5-|
--0-0-0-0-------------------------|


  S S S S S S S S S S S S S S S S
----------------------------------|
----------------------------------|
----------------------------------|
----------------------------------|
--8-8-8-8-8-8-8-8-7-7-7-7-7-7-7-7-|
----------------------------------|


  S S S S S S S S S S S S S S S S
----------------------------------|
----------------------------------|
----------------------------------|
----------------------------------|
----------5-5-5-5-4-4-4-4-5-5-5-5-|
--0-0-0-0-------------------------|


  S S S S S S S S S S S S S S S S
----------------------------------|
----------------------------------|
----------------------------------|
--7-7-7-7-6-6-6-6-----------------|
------------------8-8-8-8-7-7-7-7-|
----------------------------------|


  S S S S S S S S S S S S S S S S
----------------------------------|
----------------------------------|
----------------------------------|
----------------------------------|
----------5-5-5-5-4-4-4-4-5-5-5-5-|
--0-0-0-0-------------------------|


  S S S S S S S S S S S S S S S S
----------------------------------|
----------------------------------|
----------------------------------|
----------------------------------|
--8-8-8-8-8-8-8-8-7-7-7-7-7-7-7-7-|
----------------------------------|


  S S S S S S S S S S S S S S S S
----------------------------------|
----------------------------------|
----------------------------------|
----------8-8-8-8-7-7-7-7-5-5-5-5-|
----------------------------------|
--8-8-8-8-------------------------|


  S S S S S S S S S S S S S S S S
----------------------------------|
----------------------------------|
----------------------------------|
----------------------------------|
--8-8-8-8-8-8-8-8-4-4-4-4-4-4-4-4-|
----------------------------------|


  S S S S S S S S S S S S S S S S
----------------------------------|
----------------------------------|
----------------------------------|
----------------------------------|
----------5-5-5-5-4-4-4-4-5-5-5-5-|
--0-0-0-0-------------------------|


  S S S S S S S S S S S S S S S S
----------------------------------|
----------------------------------|
----------------------------------|
----------------------------------|
--8-8-8-8-8-8-8-8-7-7-7-7-7-7-7-7-|
----------------------------------|


  S S S S S S S S S S S S S S S S
----------------------------------|
----------------------------------|
----------------------------------|
----------------------------------|
----------5-5-5-5-4-4-4-4-5-5-5-5-|
--0-0-0-0-------------------------|


  S S S S S S S S S S S S S S S S
----------------------------------|
----------------------------------|
----------------------------------|
--7-7-7-7-6-6-6-6-----------------|
------------------8-8-8-8-7-7-7-7-|
----------------------------------|


  S S S S S S S S S S S S S S S S
----------------------------------|
----------------------------------|
----------------------------------|
----------------------------------|
----------5-5-5-5-4-4-4-4-5-5-5-5-|
--0-0-0-0-------------------------|


  S S S S S S S S S S S S S S S S
----------------------------------|
----------------------------------|
----------------------------------|
----------------------------------|
--8-8-8-8-8-8-8-8-7-7-7-7-7-7-7-7-|
----------------------------------|


  S S S S S S S S S S S S S S S S
----------------------------------|
----------------------------------|
----------------------------------|
----------8-8-8-8-7-7-7-7-5-5-5-5-|
----------------------------------|
--8-8-8-8-------------------------|


  S S S S S S S S S S S S S S S S
----------------------------------|
----------------------------------|
----------------------------------|
----------------------------------|
--8-8-8-8-8-8-8-8-4-4-4-4-4-4-4-4-|
----------------------------------|


  E  E  E  E  E  E  E  E
--------------------------|
--------------------------|
--7--7--7--7--7--7--6--7--|
--7--7--7--7--7--7--6--7--|
--5--5--5--5--5--5--4--5--|
--0--0--0--0--0--0--0--0--|


  E  E  E  E  Q    Q
------------------------|
------------------------|
--6--6--6--6------------|
--6--6--6--6--3----6----|
--4--4--4--4--3----6----|
--0--0--0--0--3----6----|


  E  E  E  E  E  E  E  E
--------------------------|
--------------------------|
--7--7--7--7--7--7--6--7--|
--7--7--7--7--7--7--6--7--|
--5--5--5--5--5--5--4--5--|
--0--0--0--0--0--0--0--0--|


   E   E   E   E  Q    Q
----------------------------|
----------------------------|
--10--10--10--10------------|
--10--10--10--10--6----1----|
---8---8---8---8--6----1----|
---0---0---0---0--6----1----|


  E  E  E  E  E  E  E  E
--------------------------|
--------------------------|
--7--7--7--7--7--7--6--7--|
--7--7--7--7--7--7--6--7--|
--5--5--5--5--5--5--4--5--|
--0--0--0--0--0--0--0--0--|


  E  E  E  E  Q    Q
------------------------|
------------------------|
--6--6--6--6------------|
--6--6--6--6--3----6----|
--4--4--4--4--3----6----|
--0--0--0--0--3----6----|


  E  E  E  E  E  E  E  E
--------------------------|
--------------------------|
--7--7--7--7--7--7--6--7--|
--7--7--7--7--7--7--6--7--|
--5--5--5--5--5--5--4--5--|
--0--0--0--0--0--0--0--0--|


   E   E   E   E  Q    Q
----------------------------|
----------------------------|
--10--10--10--10------------|
--10--10--10--10--6----1----|
---8---8---8---8--6----1----|
---0---0---0---0--6----1----|


  Q    E  E  Q    E  E
------------------------|
------------------------|
------------------------|
--0----------0----------|
--0----0--0--0----0--0--|
--0----0--0--0----0--0--|


  Q    E  E  E  E  E  E
-------------------------|
-------------------------|
-------------------------|
--0----------------------|
--0----0--0--1--1--1--1--|
--0----0--0--1--1--1--1--|


  Q    E  E  Q    E  E
------------------------|
------------------------|
------------------------|
--0----------0----------|
--0----0--0--0----0--0--|
--0----0--0--0----0--0--|


  Q    E  E  E  E  Q
------------------------|
------------------------|
------------------------|
--0----------------1----|
--0----0--0--1--1--1----|
--0----0--0--1--1--1----|


  Q    S S S S Q    S S S S
----------------------------|
----------------------------|
--2------------2------------|
--3----0-0-0-0-3----0-0-0-0-|
--5------------5------------|
----------------------------|


  Q    S S S S E  E  E  E
---------------------------|
---------------------------|
--2------------------------|
--3----0-0-0-0-7--8--5--8--|
--5------------7--8--5--8--|
---------------7--8--5--8--|


  Q    S S S S Q    S S S S
----------------------------|
----------------------------|
--2------------2------------|
--3----0-0-0-0-3----0-0-0-0-|
--5------------5------------|
----------------------------|


  Q    S S S S E  E  Q
--------------------------|
--------------------------|
--2-----------------------|
--3----0-0-0-0-------1----|
--5------------1--1--1----|
---------------1--1--1----|


  E  E  E  E  E  E  E  E
--------------------------|
--------------------------|
--2--------1--2--------1--|
--3--------2--3--------2--|
--5--------4--5--------4--|
-----0--0--------0--0-----|


  E  E  E  E  E  E  E  E
--------------------------|
--------------------------|
--2--------1--2--3--2--1--|
--3--------2--3--5--3--2--|
--5--------4--5--7--5--4--|
-----0--0-----------------|


  E  E  E  E  E  E  E  E
--------------------------|
--------------------------|
--2--------1--2--------1--|
--3--------2--3--------2--|
--5--------4--5--------4--|
-----0--0--------0--0-----|


  S S S S S S S S S S S S S S S S
----------------------------------|
----------------------------------|
------------------1-1-1-1---------|
----------2-2-2-2---------2-2-2-2-|
--4-4-4-4-------------------------|
----------------------------------|


  E  E  E  E  E  E  E  E
--------------------------|
--------------------------|
--2--------1--2--------1--|
--3--------2--3--------2--|
--5--------4--5--------4--|
-----0--0--------0--0-----|


  E  E  E  E  E  E  E  E
--------------------------|
--------------------------|
--2--------1--2--3--2--1--|
--3--------2--3--5--3--2--|
--5--------4--5--7--5--4--|
-----0--0-----------------|


  E  E  E  E  E  E  E  E
--------------------------|
--------------------------|
--3--3--3--3--3--3--3--3--|
--3--3--3--3--3--3--3--3--|
--1--1--1--1--1--1--1--1--|
--------------------------|


  E  E  E  E  E  E  E  E
--------------------------|
--------------------------|
--------------------------|
--2--2--2--2--2--2--2--2--|
--2--2--2--2--2--2--2--2--|
--2--2--2--2--2--2--2--2--|


  E  E  E  E  E  E  E  E
--------------------------|
--------------------------|
--------------------------|
--3--------2--3--------2--|
--5--------4--5--------4--|
-----0--0--------0--0-----|


  E  E  E  E  E  E  E  E
--------------------------|
--------------------------|
--------------------------|
--3--------2--3--4--3--2--|
--5--------4--5--6--5--4--|
-----0--0-----------------|


  E  E  E  E  E  E  E  E
--------------------------|
--------------------------|
--------------------------|
--3--------2--3--------2--|
--5--------4--5--------4--|
-----0--0--------0--0-----|


  S S S S S S S S S S S S S S S S
----------------------------------|
----------------------------------|
----------------------------------|
----------------------------------|
--1-1-1-1-1-1-1-1-----------------|
------------------2-2-2-2-2-2-2-2-|


  E  E  E  E  E  E  E  E
--------------------------|
--------------------------|
--------------------------|
--3--------2--3--------2--|
--5--------4--5--------4--|
-----0--0--------0--0-----|


  E  E  E  E  E  E  E  E
--------------------------|
--------------------------|
--------------------------|
--3--------2--3--4--3--2--|
--5--------4--5--6--5--4--|
-----0--0-----------------|


  E  E  E  E  E  E  E  E
--------------------------|
--------------------------|
--------------------------|
--3--------2--3--------2--|
--5--------4--5--------4--|
-----0--0--------0--0-----|


  S S S S S S S S S S S S S S S S
----------------------------------|----|----|
----------------------------------|----|----|
----------------------------------|----|----|
----------------------------------|----|----|
--1-1-1-1-1-1-1-1-----------------|----|----|
------------------2-2-2-2-2-2-2-2-|----|----|


----|----|----|----|----|----|----|----|----|
----|----|----|----|----|----|----|----|----|
----|----|----|----|----|----|----|----|----|
----|----|----|----|----|----|----|----|----|
----|----|----|----|----|----|----|----|----|
----|----|----|----|----|----|----|----|----|


----|----|----|----|----|----|----|----|----|
----|----|----|----|----|----|----|----|----|
----|----|----|----|----|----|----|----|----|
----|----|----|----|----|----|----|----|----|
----|----|----|----|----|----|----|----|----|
----|----|----|----|----|----|----|----|----|


            Q    Q    Q    Q
----|----|----------------------|
----|----|----------------------|
----|----|--7--------------7----|
----|----|-------7--------------|
----|----|------------8---------|
----|----|----------------------|


  Q    Q    Q    Q
----------------------|
----------------------|
------------9---------|
--7--------------7----|
-------8--------------|
----------------------|


  Q    Q    Q    Q
----------------------|
----------------------|
-------7--------------|
------------7---------|
--8--------------8----|
----------------------|


   Q    Q     Q     Q
-------------------------|
-------------------------|
--10---------------10----|
--------8----------------|
-------------10----------|
-------------------------|


  Q     Q    Q    Q
-----------------------|
-----------------------|
-------------9---------|
--8---------------8----|
-------10--------------|
-----------------------|


   Q    Q    Q     Q
------------------------|
------------------------|
--------9---------------|
-------------8----------|
--10--------------10----|
------------------------|


  Q    Q    Q    Q
----------------------|
----------------------|
--7--------------7----|
-------7--------------|
------------8---------|
----------------------|


  Q    Q    Q    Q
----------------------|
----------------------|
------------9---------|
--7--------------7----|
-------8--------------|
----------------------|


  Q    Q    Q    Q
----------------------|
----------------------|
-------7--------------|
------------7---------|
--8--------------8----|
----------------------|


   Q    Q     Q     Q
-------------------------|
-------------------------|
--10---------------10----|
--------8----------------|
-------------10----------|
-------------------------|


  Q     Q    Q    Q
-----------------------|
-----------------------|
-------------9---------|
--8---------------8----|
-------10--------------|
-----------------------|


   Q    Q    Q     Q
------------------------|
------------------------|
--------9---------------|
-------------8----------|
--10--------------10----|
------------------------|


   E   E   E   E   E   E  E  E
--------------------------------|
--------------------------------|
--14--14--14--14--14--14--9--9--|
--------------------------------|
--12--12--12--12--12--12--7--7--|
---0---0---0---0---0---0--0--0--|


  E  E  E  E   E   E   E   E
------------------------------|
------------------------------|
--9--9--9--9--10--10--10--10--|
------------------------------|
--7--7--7--7---8---8---8---8--|
--0--0--0--0---0---0---0---0--|


   E   E  E  E  E  E  E  E
----------------------------|
----------------------------|
--10--10--7--7--7--7--7--7--|
----------------------------|
---8---8--5--5--5--5--5--5--|
---0---0--0--0--0--0--0--0--|


   E   E   E   E   E   E   E   E
----------------------------------|
----------------------------------|
--15--15--15--15--15--15--12--12--|
----------------------------------|
--13--13--13--13--13--13--10--10--|
---0---0---0---0---0---0---0---0--|


   E   E   E   E   E   E   E   E
----------------------------------|
----------------------------------|
--12--12--12--12--14--14--14--14--|
----------------------------------|
--10--10--10--10--12--12--12--12--|
---0---0---0---0---0---0---0---0--|


   E   E  E  E  E  E  E  E
----------------------------|
----------------------------|
--14--14--9--9--9--9--9--9--|
----------------------------|
--12--12--7--7--7--7--7--7--|
---0---0--0--0--0--0--0--0--|


   E   E   E   E   E   E  E  E
--------------------------------|
--------------------------------|
--14--14--14--14--14--14--9--9--|
--------------------------------|
--12--12--12--12--12--12--7--7--|
---0---0---0---0---0---0--0--0--|


  E  E  E  E   E   E   E   E
------------------------------|
------------------------------|
--9--9--9--9--10--10--10--10--|
------------------------------|
--7--7--7--7---8---8---8---8--|
--0--0--0--0---0---0---0---0--|


   E   E  E  E  E  E  E  E
----------------------------|
----------------------------|
--10--10--7--7--7--7--7--7--|
----------------------------|
---8---8--5--5--5--5--5--5--|
---0---0--0--0--0--0--0--0--|


   E   E   E   E   E   E   E   E
----------------------------------|
----------------------------------|
--15--15--15--15--15--15--12--12--|
----------------------------------|
--13--13--13--13--13--13--10--10--|
---0---0---0---0---0---0---0---0--|


   E   E   E   E   E   E   E   E
----------------------------------|
----------------------------------|
--12--12--12--12--14--14--14--14--|
----------------------------------|
--10--10--10--10--12--12--12--12--|
---0---0---0---0---0---0---0---0--|


   E   E  E  E  E  E  E  E
----------------------------|
----------------------------|
--14--14--9--9--9--9--9--9--|
----------------------------|
--12--12--7--7--7--7--7--7--|
---0---0--0--0--0--0--0--0--|


   E   E   E   E   E   E  E  E
--------------------------------|
--------------------------------|
--14--14--14--14--14--14--9--9--|
--------------------------------|
--12--12--12--12--12--12--7--7--|
---0---0---0---0---0---0--0--0--|


  E  E  E  E   E   E   E   E
------------------------------|
------------------------------|
--9--9--9--9--10--10--10--10--|
------------------------------|
--7--7--7--7---8---8---8---8--|
--0--0--0--0---0---0---0---0--|


   E   E  E  E  E  E  E  E
----------------------------|
----------------------------|
--10--10--7--7--7--7--7--7--|
----------------------------|
---8---8--5--5--5--5--5--5--|
---0---0--0--0--0--0--0--0--|


   E   E   E   E   E   E   E   E
----------------------------------|
----------------------------------|
--15--15--15--15--15--15--12--12--|
----------------------------------|
--13--13--13--13--13--13--10--10--|
---0---0---0---0---0---0---0---0--|


   E   E   E   E   E   E   E   E
----------------------------------|
----------------------------------|
--12--12--12--12--14--14--14--14--|
----------------------------------|
--10--10--10--10--12--12--12--12--|
---0---0---0---0---0---0---0---0--|


   E   E  E  E  E  E  E  E
----------------------------|
----------------------------|
--14--14--9--9--9--9--9--9--|
----------------------------|
--12--12--7--7--7--7--7--7--|
---0---0--0--0--0--0--0--0--|


   E   E   E   E   E   E  E  E
--------------------------------|
--------------------------------|
--14--14--14--14--14--14--9--9--|
--------------------------------|
--12--12--12--12--12--12--7--7--|
---0---0---0---0---0---0--0--0--|


  E  E  E  E   E   E   E   E
------------------------------|
------------------------------|
--9--9--9--9--10--10--10--10--|
------------------------------|
--7--7--7--7---8---8---8---8--|
--0--0--0--0---0---0---0---0--|


   E   E  E  E  E  E  E  E
----------------------------|
----------------------------|
--10--10--7--7--7--7--7--7--|
----------------------------|
---8---8--5--5--5--5--5--5--|
---0---0--0--0--0--0--0--0--|


   E   E   E   E   E   E   E   E
----------------------------------|
----------------------------------|
--15--15--15--15--15--15--12--12--|
----------------------------------|
--13--13--13--13--13--13--10--10--|
---0---0---0---0---0---0---0---0--|


   E   E   E   E   E   E   E   E
----------------------------------|
----------------------------------|
--12--12--12--12--14--14--14--14--|
----------------------------------|
--10--10--10--10--12--12--12--12--|
---0---0---0---0---0---0---0---0--|


   E   E  E  E  E  E  E  E
----------------------------|
----------------------------|
--14--14--9--9--9--9--9--9--|
----------------------------|
--12--12--7--7--7--7--7--7--|
---0---0--0--0--0--0--0--0--|


   E   E   E   E   E   E  E  E
--------------------------------|
--------------------------------|
--14--14--14--14--14--14--9--9--|
--------------------------------|
--12--12--12--12--12--12--7--7--|
---0---0---0---0---0---0--0--0--|


  E  E  E  E   E   E   E   E
------------------------------|
------------------------------|
--9--9--9--9--10--10--10--10--|
------------------------------|
--7--7--7--7---8---8---8---8--|
--0--0--0--0---0---0---0---0--|


   E   E  E  E  E  E  E  E
----------------------------|
----------------------------|
--10--10--7--7--7--7--7--7--|
----------------------------|
---8---8--5--5--5--5--5--5--|
---0---0--0--0--0--0--0--0--|


   E   E   E   E   E   E   E   E
----------------------------------|
----------------------------------|
--15--15--15--15--15--15--12--12--|
----------------------------------|
--13--13--13--13--13--13--10--10--|
---0---0---0---0---0---0---0---0--|


   E   E   E   E   E   E   E   E
----------------------------------|
----------------------------------|
--12--12--12--12--14--14--14--14--|
----------------------------------|
--10--10--10--10--12--12--12--12--|
---0---0---0---0---0---0---0---0--|


   E   E  E  E  E  E  E  E
----------------------------|-----|-----|
----------------------------|-----|-----|
--14--14--9--9--9--9--9--9--|-----|-----|
----------------------------|-----|-----|
--12--12--7--7--7--7--7--7--|-----|-----|
---0---0--0--0--0--0--0--0--|-----|-----|


-----|-----|-----|-----|
-----|-----|-----|-----|
-----|-----|-----|-----|
-----|-----|-----|-----|
-----|-----|-----|-----|
-----|-----|-----|-----|


  Q    Q    Q    Q
----------------------|
----------------------|
----------------------|
----------------------|
--2----2----2----2----|
--4----4----4----4----|


  Q    Q    Q    Q
----------------------|
----------------------|
----------------------|
----------------------|
--2----2----5----5----|
--4----4----7----7----|


  Q    Q    Q    Q
----------------------|
----------------------|
----------------------|
----------------------|
--5----5----5----5----|
--7----7----7----7----|


  Q    Q    Q    Q
----------------------|
----------------------|
----------------------|
--4----4----4----4----|
--5----5----5----5----|
----------------------|


  Q    Q    Q    Q
----------------------|
----------------------|
----------------------|
--4----4----2----2----|
--5----5----4----4----|
----------------------|


  Q    Q    Q    Q
----------------------|
----------------------|
----------------------|
--2----2----2----2----|
--4----4----4----4----|
----------------------|


  Q    Q    Q    Q
----------------------|
----------------------|
-----------------7----|
------------9---------|
-------9--------------|
--9-------------------|


  Q    Q    Q    Q
----------------------|
----------------------|
----------------------|
--9-------------------|
-------9---------5----|
------------5---------|


  Q    Q    Q    Q
----------------------|
----------------------|
-------4--------------|
--7---------7---------|
-----------------5----|
----------------------|


  Q    Q    Q    Q
----------------------|
----------------------|
----------------------|
------------4----5----|
-------0--------------|
--0-------------------|


  S S E  Q    Q    Q
------------------------|
------------------------|
------------------------|
--4-5-4-----------------|
---------5---------7----|
--------------7---------|


  Q    Q    Q    Q
----------------------|
----------------------|
----------------------|
--7----9----7---------|
-----------------7----|
----------------------|


  Q    Q    Q    Q
----------------------|
----------------------|
-----------------7----|
------------9---------|
-------9--------------|
--9-------------------|


  Q    Q    Q    Q
----------------------|
----------------------|
----------------------|
--9-------------------|
-------9---------5----|
------------5---------|


  Q    Q    Q    Q
----------------------|
----------------------|
----------------------|
--7----9----7---------|
-----------------5----|
----------------------|


  Q    Q    Q    Q
----------------------|
----------------------|
----------------------|
------------4----5----|
-------0--------------|
--0-------------------|


  S S E  Q    Q    Q
------------------------|
------------------------|
------------------------|
--4-5-4-----------------|
---------5---------7----|
--------------7---------|


  Q    Q    Q    Q       H.           Q
----------------------|--------------------|
----------------------|--7------------7----|
----------------------|--------------------|
--7----9----7---------|--------------------|
-----------------7----|--------------------|
----------------------|--------------------|


  Q    Q    H            Q    H.
----------------------|--------------------|
--5-------------------|--------------------|
-------7----6~--------|--L----7------------|
----------------------|--------------------|
----------------------|--------------------|
----------------------|--------------------|


  H.            E  S S
--5~------------5--3-5-|
-----------------------|
-----------------------|
-----------------------|
-----------------------|
-----------------------|


  E  E  E  E  H
--3---------------------|
-----7--------5~--------|
--------7---------------|
-----------7------------|
------------------------|
------------------------|


  Q    E  E  E  E  E  E
-------2--3--2-----------|
--L-------------5--3--5--|
-------------------------|
-------------------------|
-------------------------|
-------------------------|


  E  E  E  E  E  E  E  E
--------------------------|
--------3-----------------|
-----4-----4-----4-----4--|
--4-----------4-----4-----|
--------------------------|
--------------------------|


  E  E  E  E  E  E  E  E
--2-----------------------|
-----3-----3--------3-----|
--------4--------4-----4--|
--------------5-----------|
--------------------------|
--------------------------|


  E  E  E  E  E  E  E  E
--------------2-----------|
--------------------------|
-----4-----2-----2-----2--|
--5-----5-----------5-----|
--------------------------|
--------------------------|


  S S S S S S S S S S S S S S S S
----------------------------------|
----------------------------------|
----------------------------------|
------------------4-4-5-5-4-4-----|
--5-5-----5-5-7-7-------------5-5-|
------7-7-------------------------|


  S S S S E  E  E  E  E  E
----------------------------|
----------------7-----------|
-------------7-----7-----7--|
--4-4-5-5-7-----------7-----|
----------------------------|
----------------------------|


  E  E  H.
----------------------|
--------8b------------|
--6-------------------|
-----7----------------|
----------------------|
----------------------|


  E  E  E  E  E  E  E  E
--7-----------------------|
--------7-----------7-----|
-----4-----4-----4-----4--|
--------------4-----------|
--------------------------|
--------------------------|


  E  E  E  E   E   E   E   E
------------------12--14------|
--------7-----15----------15--|
--7--9-----7------------------|
------------------------------|
------------------------------|
------------------------------|


   E   E  E  E  E  E  E  E
----------------------------|
--12--15-----5--7-----------|
----------7--------7--6--7--|
----------------------------|
----------------------------|
----------------------------|


   Q      Q      Q      Q
------------------------------|
--10------L------L------L-----|
---9b-----9b-----9b-----9b----|
------------------------------|
------------------------------|
------------------------------|


              PH
  Q    Q      H            W
------------------------|-------------------|
------------------------|-------------------|
--9----7----<>9~--------|--L----------------|
------------------------|-------------------|
------------------------|-------------------|
------------------------|-------------------|


  S S S S S S S S S S S S S S S S
----------------------------------|
----------------------------------|
----------------------2-4---------|
--------2-4-5---2-4-5-------2-4-5-|
--2-4-5-------5-----------5-------|
----------------------------------|


  S S S S S S S S S S S S S S S S
----------------------------------|
----------------2-------------7---|
------2-4---2-4---7---------------|
--4-5-----5---------7-5-7-5-7---7-|
----------------------------------|
----------------------------------|


  S S S S S S S S S S S S S S S S
----------------------------------|
----------------------------------|
----------6-----------7-----------|
--5-7-5-7---7-5-7-4-7---7-5-7---4-|
------------------------------5---|
----------------------------------|


   H.             E  S  S
--------------------------|
--10-------------10--8-10-|
---9b---------------------|
--------------------------|
--------------------------|
--------------------------|


  E  E  E  E  H
-------------------------|
--8--7-----7-------------|
--------7-----7b~--------|
-------------------------|
-------------------------|
-------------------------|


  W
-------------------|
-------------------|
--L----------------|
-------------------|
-------------------|
-------------------|


  S S S S S S S S S S S S  S S S S
-----------------------------------|
-----------------------------------|
-----------------------------------|
--4-0-0-0-9-0-0-0-4-0-0-0-16-0-0-0-|
-----------------------------------|
-----------------------------------|


   S S S S S S S S S S S S S S S S
-----------------------------------|
-----------------------------------|
-----------------------------------|
--12-0-0-0-9-0-0-0-5-0-0-0-7-0-0-0-|
-----------------------------------|
-----------------------------------|


  S S S S  S S S S S S S S S S S S
-----------------------------------|
-----------------------------------|
-----------------------------------|
--5-0-0-0-16-0-0-0-7-0-0-0-5-0-0-0-|
-----------------------------------|
-----------------------------------|


   |--3--|  |--3--|  |--3--|  |--3--|
   E  E  E  E  E  E  E  E  E  E  E  E
---------------------------------------|
--10--8--7--8--7-----7--------5--------|
------------------9-----9--7-----7-----|
------------------------------------7--|
---------------------------------------|
---------------------------------------|


  |--3--|  |--3--|  |--3--|  |--3--|
  E  E  E  E  E  E  E  E  E  E  E  E
--------------------------------------|
--7--5-----7--------7--5--------------|
--------7-----7-----------7--7--6-----|
-----------------7-----------------7--|
--------------------------------------|
--------------------------------------|


  |--3--|  |--3--|  |--3--|  |--3--|
  E  E  E  E  E  E  E  E  E  E  E  E
--------------------------------------|
-----------7--5-----------------------|
-----------------7--7--6--------------|
--7-----7-----------------7--7-----7--|
-----7--------------------------7-----|
--------------------------------------|


   W                    H         H
---7-----------------|-----------10---------|
--10b----------------|--L--------13b--------|
---------------------|----------------------|
---------------------|----------------------|
---------------------|----------------------|
---------------------|----------------------|


  Q     H.                W
-------12-------------|--14-----------------|
--L----15b------------|--17b----------------|
----------------------|---------------------|
----------------------|---------------------|
----------------------|---------------------|
----------------------|---------------------|


  H         H            W
-----------12---------|-------------------|
--L--------15b--------|--L----------------|
----------------------|-------------------|
----------------------|-------------------|
----------------------|-------------------|
----------------------|-------------------|


-------------------|-------------------|
-------------------|-------------------|
-------------------|-------------------|
-------------------|-------------------|
-------------------|-------------------|
-------------------|-------------------|


-------------------|-------------------|
-------------------|-------------------|
-------------------|-------------------|
-------------------|-------------------|
-------------------|-------------------|
-------------------|-------------------|


-------------------|-------------------|
-------------------|-------------------|
-------------------|-------------------|
-------------------|-------------------|
-------------------|-------------------|
-------------------|-------------------|


-------------------|-------------------|
-------------------|-------------------|
-------------------|-------------------|
-------------------|-------------------|
-------------------|-------------------|
-------------------|-------------------|


-------------------|-------------------|
-------------------|-------------------|
-------------------|-------------------|
-------------------|-------------------|
-------------------|-------------------|
-------------------|-------------------|


-------------------|-------------------|
-------------------|-------------------|
-------------------|-------------------|
-------------------|-------------------|
-------------------|-------------------|
-------------------|-------------------|


-------------------|-------------------|
-------------------|-------------------|
-------------------|-------------------|
-------------------|-------------------|
-------------------|-------------------|
-------------------|-------------------|


-------------------|-------------------|
-------------------|-------------------|
-------------------|-------------------|
-------------------|-------------------|
-------------------|-------------------|
-------------------|-------------------|


-------------------|-------------------|
-------------------|-------------------|
-------------------|-------------------|
-------------------|-------------------|
-------------------|-------------------|
-------------------|-------------------|


-------------------|-------------------|
-------------------|-------------------|
-------------------|-------------------|
-------------------|-------------------|
-------------------|-------------------|
-------------------|-------------------|


-------------------|-------------------|
-------------------|-------------------|
-------------------|-------------------|
-------------------|-------------------|
-------------------|-------------------|
-------------------|-------------------|


-------------------|-------------------||
-------------------|-------------------||
-------------------|-------------------||
-------------------|-------------------||
-------------------|-------------------||
-------------------|-------------------||




Duration Legend
---------------
W - whole
H - half
Q - quarter
E - 8th
S - 16th
T - 32nd
X - 64th
. - note dotted
|-n-|  - n-tuplets


Tablature Legend
----------------
L - tied note
x - dead note
g - grace note
(n) - ghost note
> - accentuded note
NH - natural harmonic
AH - artificial harmonic
TH - tapped harmonic
SH - semi harmonic
PH - pitch harmonic
h - hammer on
p - pull off
b - bend
br - bendRelease
pb - preBend
pbr - preBendRelease
brb - bendReleaseBend
\n/ - tremolo bar dip
\n - tremolo bar dive
-/n - tremolo bar Release up
/n\ - tremolo bar inverted dip
/n - tremolo bar return
-\n - tremolo bar Release down
S - shift slide
s - legato slide
/ -  slide into from below or out of upwards
\ -  slide into from above or out of downwards
~ - vibrato
W - wide vibrato
tr - trill
TP - tremolo picking
T - tapping
S - slap
P - pop
< - fade in
^ - brush up
v - brush down

http://mortalplague.bandcamp.com


signed to Pestilent Path Productions
Tap to rate this tab
 
# A B C D E F G H I J K L M N O P Q R S T U V W X Y Z