Song name
# A B C D E F G H I J K L M N O P Q R S T U V W X Y Z

Mortal Sin - Lebanon tab

http://www.mortalsin.com.au/
Intro    
e|-------------------------------------------------|
B|-------------------------------------------------|
G|-------------------------------------------------|
D|-------7-6~--------7-6~--------7-6-6h7p6---6-----|
A|---7-8---------7-8---------7-8-----------8---8-7~|
E|-------------------------------------------------|

Riff 1                           Riff 1+  
e|-----------------------------|---------------|-----------------|
B|-----------------------------|---------------|-----------------|
G|-----------------------------|---------------|-----------------|
D|--2-----7s9----9s10----10s7-7|--10----12-----|---10----12------|
A|--2-----5s7----7s8------8s5-5|---8----10-----|----8----10--10--|
E|--0--00-----00------00-------|---------------|-------------8---|
       ..     ..      ..       (1.2. and 4. time)      (3.time)

intro to riff 2
e|-----------------------------------------|
B|-----------------------------------------|
G|-----------------------------------------|
D|--7p6---6---7p6---6---7p6---6------------|
A|------8---------8---------8----8p7-8p7-77|
E|-----------------------------------------|

Riff 2
e|--------------------------------------|
B|--------------------------------------|
G|--------------------------------------|
D|-2----------2----------2--------------|
A|-2---5---5--2----5---5-2-----7-5------|
E|-0-0-3p0-3--0-00-3p0-3-0--00-5-3------|
     .          ..          ..


Riff 3
e|---------------------------------------------------------------|
B|---------------------------------------------------------------|
G|---------------------------------------------------------------|
D|------------------------------------------------------7--6-7-6-|
A|-------------0-3--------------3-0-----------------7-8----------|
E|-0-0-0-0-0-0-2-1--0-0-0-0-0-0-1-2-0-0-0-0-0-0-0-0--------------|
   . . . . . .      . . . . . .     . . . . . . . .     


Riff 4
e|------------------------------------------------------------------------|
B|------------------------------------------------------------------------|
G|------------------------------------------------------------------------|
D|--------------9-10----------------10-9---------------9-10-------14-13-10|
A|--------------7-8-----------------8--7---------------7-8--------12-11-8-|
E|-000000000000-------000000000000-------000000000000-------00000---------|  
   ............       ............       ............       .....


Riff 5
e|-------------------------------------------------------------|
B|-------------------------------------------------------------|
G|-------------------------------------------------------------|
D|-----------------------------------------------------------2-|
A|--6s9--------7-6--6-9--------7-6--6s9--------7-6---7-6-7-6-2-|
E|--4s7-777777-5-4--4s7-777777-5-4--4s7-777777-5-4---5-4-5-4-0-|
        ......          ......          ......

Riff 6
e|----------------------------------------------|
B|----------------------------------------------|
G|----------------------------------------------|
D|--2------2-----2------------2------2----------|
A|--2------2-----2-----1-0----2------2----3---3-|
E|--0--0-0-0-0-0-0-0-0-----1--0--0-0-0--0-1-0-1-|
       . .   . .   . .           . .    .   .  

Riff 7
e|---------------------------------------------------|
B|---------------------------------------------------|
G|---------------------------------------------------|
D|---------------------------------------------------|
A|---------5-------------7-------------8-----7-----3-|
E|-0-0-0-0-3-0-0-0-0-0-0-5-0-0-0-0-0-0-6-0-0-5-0-0-1-|
   . . . .   . . . . . .   . . . . . .   . .   . .



Great song! The battle of Lebanon..A KILLER!! 
Note:
~ -vibrato
h -hammer on
p -pull off
. -palm mute
s -slide
THRASH-very good yes             

                                                tabbed by: Mirko Prislin
                                                  (mirkoprislin@yahoo.com)
Tap to rate this tab
 
# A B C D E F G H I J K L M N O P Q R S T U V W X Y Z