Song name
# A B C D E F G H I J K L M N O P Q R S T U V W X Y Z

Mortal Sin - Mayhemic Destruction tab

Artist: Mortal Sin
Song: Mayhemic Destruction
Album: Mayhemic Destruction
Year: 1986
----------------------------------------------------------------------------
Standard tuning (EADGBe)



Intro    
e|----------------------------------------------------------------------|
B|----------------------------------------------------------------------|
G|----------------------------------------------------------------------|
D|------2---3---2---2--------2------------2---3---2---22------22--------|
A|---00---0---0---0-0-000000-0-000000--00---0---0---0-00-0000-00-0000---|
E|----------------------------------------------------------------------|
     ..   .   .   .   ......   ......  ..   .   .   .    ....    ....


Riff 1                               ends: 
e|----------------------------------|-----|
B|----------------------------------|-----|
G|------------------3s2----3s2------|-----|
D|------2---3---2---1s0----1s0------|--2--|
A|---00---0---0---0-----00-----00---|--0--|
E|----------------------------------|-----|
     ..   .   .   .     ..     ..

Riff 2
e|---------------------------------------|
B|---------------------------------------|
G|---------------------------------------|
D|--------3s2------3s2------3s2--2-5-3---|
A|---0000-1s0-0000-1s0-0000-1s0--0-3-1---|
E|---------------------------------------|
     ....     ....     ....     

Riff 3
e|--------------------------|
B|--------------------------|
G|--------------------------|
D|------2---5---7---8---7---|
A|---00-0-0-3-0-5-0-6-0-5---|
E|--------------------------|
     ..   .   .   .   .


Riff 4                                   ends:
e|--------------------------------------|---------------|
B|--------------------------------------|---------------|
G|-----------------2222------5555-4444--|---------------|
D|------5s7----5s7------3333------------|--2-----5-4-3--|
A|---00-3s5-00-3s5----------------------|--0-3-5-3-2-1--|
E|--------------------------------------|----1-3--------|
     ..     ..   

Riff 5    (riff 2 and 5 are played during the solo)
e|-------------------------------------------------------------------------|
B|-------------------------------------------------------------------------|
G|-------------------------------------------------------------------------|
D|-----------------------------------5-4------------------------------5-4--|
A|--------3s2------3s2------3s2----3-3-2-------3s2------3s2------3s2--3-2--|
E|---0000-1s0-0000-1s0-0000-1s0----1------0000-1s0-0000-1s0-0000-1s0-------|
     ....     ....     ....               ....     ....     ....        

ends:
e|----------------------------------------------------------------------|
B|----------------------------------------------------------------------|
G|------------------------------------2---5-4-2---5-4-2---5-4-2---5-4---|
D|---2---5-4-2---5-4-2---5-4-2---5-4----3-------3-------3-------3-------|
A|---0-3-3-2-0-3-3-2-0-3-3-2-0-3-3-2------------------------------------|
E|-----1-------1-------1-------1----------------------------------------|

e|-----------------------------------------------------|
B|-----------------------------------------------------|
G|---2-1-2-4--5-4-5-7---9-7-9-10---12-10-12-13-14~ ----|
D|-----------------------------------------------------|
A|-----------------------------------------------------|
E|-----------------------------------------------------|
     t  t  t  t  t  t  t  t  t  t  t  t  t  t  

Riff 6
e|--------------------------------------------------------------------|
B|--------------------------------------------------------------------|
G|--------------------------------------------------------------------|
D|--------------------------------------------------------------------|
A|---2-------2-------2-------1p0-3--2-------2-------7p6----5p4----8---|
E|---0-0-0-0-0-0-0-0-0-0-0-0-----1--0-0-0-0-0-0-0-0-----7------5--6---|
       . . .   . . .   . . .          . . .   . . .

Riff 7
e|-----------------------------------------------|
B|-----------------------------------------------|
G|-----------------------------------------------|
D|-----------------------------------------------|
A|-----------2---------2---------3---------3s5---|
E|---0-0-0-0-0-0-0-0-0-0-1-1-1-1-1-1-1-1-1-1s3---|
     . . . .   . . . .   . . . .   . . . .

Riff 8a
e|----------------------------------------------------------|
B|----------------------------------------------------------|
G|----------------------------------------------------------|
D|-------------------------------------------------9-10-9---|
A|---5s7-----7-----7-8-----8-----5s7-----7---------7-8--7---|
E|---3s5-5-5-5-5-5-5s6-6-6-6-6-6-3s5-5-5-5-5-5-5-5----------|
         . .   . .     . .   . .     . .   . . . .   

e|--------------------------------------------------|
B|--------------------------------------------------|
G|-----------------------------------------9-10-9---|
D|---5h7-7777-77-7h8-888--88-5h7-777-7777-----------|
A|--------------------------------------------------|
E|--------------------------------------------------|
                                                  ends:
e|-----------------------------------------------|---------------|
B|---------------------------------------5-6-5---|-5--6--5-------|
G|---3h5-555-55-5s7-777-77-3h5-555-5555----------|---------------|
D|-----------------------------------------------|-----------2---|
A|-----------------------------------------------|-----------0---|
E|-----------------------------------------------|---------------|

Outro:

e|----------|
B|----------|
G|----------|
D|------2---|
A|---7--2---|
E|---5--0---|         



Note:
~ -vibrato                                      
h -hammer on
p -pull off
. -palm mute
s -slide
t-tremolo picking                                tabbed by: Mirko Prislin
                                                  (mirkoprislin@yahoo.com)

THRASH-very good yes 
Yaay for Mortal Sin \m/ 
Tap to rate this tab
# A B C D E F G H I J K L M N O P Q R S T U V W X Y Z