Song name
# A B C D E F G H I J K L M N O P Q R S T U V W X Y Z

Mortal Treason - Best Case Scenario tab

Hey guys its Kush, This is my 1st tab so I hope you like it.
Im 14 and Ive been playing guitar for 5 years.
No one posted a tab for this so I decided to put one up.
Dont ask me if I got it somewhere cuz I thought it up.
Here it is.
Enjoy.

Tuning: Full Drop D
D
A
F
C
G
C

RHYTHM
                              [0:00-1:37]
D|---------------------------------------------------------------------------|
A|---------------------------------------------------------------------------|
F|---------------------------------------------------------------------------|
C|---------------------------------------------------------------------------|X4
G|---/12-\-----000--000--000--000--00000000----------------------------------|
C|--/-12--\----000--000--000--000--00000000----------------------------------|

LEAD
                       This part is at [1:09-1:37]
|----------------------------------------------------------------------------|
|----------------------------------------------------------------------------|
|----------------------------------------------------------------------------|
|----------------------------------------------------------------------------|
|----------------------------------------------------------------------------|X9
|---/12-\------5--7--8--7--8--7--8--10--8--7--8--7--5------------------------|
|--/-12--\-------------------------------------------------------------------|

END
                   [1:37-1:44]
|-------------------------------------------|
|-------------------------------------------|
|-------------------------------------------|
|-------------------------------------------|
|---------0~~~~~~~~-------------------------|
|---------0~~~~~~~~-------------------------|

Symbols:
/12\=Slide to that fret and back.
~~~~=Let note ring out.

I know this isnt 100% correct. But somone needed to post this shit. Give me feedback on 
tab. Keep it Brutal. Bye.
Tap to rate this tab
# A B C D E F G H I J K L M N O P Q R S T U V W X Y Z