Song name
# A B C D E F G H I J K L M N O P Q R S T U V W X Y Z

Mortal Treason - Todd tab

_____________________________________________________________________________

                                Mortal Treason
_____________________________________________________________________________

Song: Todd
Album: A Call To The Martyrs
Tabbed by: Sir Nicholi
Email: ThursdayNick@AOL.com

Drop C

I'm not really sure what there tuning was but I play in drop C and this sounds right.
It helps a lot if you listen to the song at the same time you shouldn't have any 
figuring it out.


Guitar 1
 0:00
 _________________________________
D|-------------------------------|
A|-------------------------------|
F|-------------------------------|
C|-------------------------------|
G|---444111333111p333000222000---|
C|-------------------------------|
          |             |
   play 4x Times    play 4x Times


Both Guitars
 0:06
 _____________________________________________________________________
D|-------------------------------------------------------------------|
A|-------------------------------------------------------------------|
F|-------------------------------------------------------------------|
C|--------------------------------------------------------0----------|
G|---444111333111p333000222000h444111333111p333000222000p-0----------|
C|--------------------------------------------------------0----------|
                                                 |
                                     last time play twice then open

One Guitar plays first then both kick in to play 3 times
 -  Tremo  These are all 10s and 11s not ones or zeros
 0:18
 _____________________________________________
D|-------------------------------------------|
A|-------------------------------------------|
F|-------------------------------------------|
C|---101010111111101010888-999101010999777---|
G|-------------------------------------------|
C|-------------------------------------------|
                                             |
              All together play 4x

One Guitar plays this then
 0:40
_______________________________________________________________________________
D|----------------------------------------------------------------------------|
A|----------------------------------------------------------------------------|
F|----------------------------------------------------------------------------|
C|---0000-0000000-000-0000-0000000-000-\--0000-0000000-000-0000-0000000-000---|
G|---0000-0000000-000-0000-0000000-000-\--0000-0000000-000-0000-0000000-000---|
C|---0000-0000000-000-0000-0000000-000-\--0000-0000000-000-0000-0000000-000---|
     .... ....... ... .... ....... ... | guitar two slides .... ....... ...


Both Guitars kick in    play 8x
 0:48
 ___________________________________________________________________________
D|-------------------------------------------------------------------------|
A|-------------------------------------------------------------------------|
F|-------------------------------------------------------------------------|
C|---0000-0000000-000-0000-0000000-000-0000-0000000-000-0000-0000000-000---|
G|---0000-0000000-000-0000-0000000-000-0000-0000000-000-0000-0000000-000---|
C|---0000-0000000-000-0000-0000000-000-0000-0000000-000-0000-0000000-000---|
     .... ....... ... .... ....... ... .... ....... ... .... ....... ...

Both Guitars
 1:03
 ___________________________________________________
D|-------------------------------------------------|
A|-------------------------------------------------|
F|-------------------------------------------------|
C|---000--000-0-000--000-0-000--000-0-000--000-0---|repeat
G|---000--000-0-000--000-0-000--000-0-000--000-0---|
C|---000--000-0-000--000-0-000--000-0-000--000-0---|
     ...  ... . ...  ... . ...  ... . ...  ... .


One Guitar
 1:28                         |Guitar 2
 _____________________________|____________________________________
D|----------------------------|-----------------------------------|
A|----------------------------|-----------------------------------|
F|----------------------------|-----------------------------------|
C|----------------------------|-----------------------------------|
G|----------------------------555888777101010888121212101010777---|
C|---222555444777555888777444-222555444777555888777444------------|
                | repeat then |


Both Guitars
 1:42
 _______________________________________________________________________
D|---------------------------------------------------------------------|
A|---------------------------------------------------------------------|
F|---------------------------------------------------------------------|
C|---0-5-4-2-3-5-4-2-0-5-4-2-3-5-4-2-0-5-4-2-3-5-4-2-0-5-4-2-3-5-4-2---|
G|---0-5-4-2-3-5-4-2-0-5-4-2-3-5-4-2-0-5-4-2-3-5-4-2-0-5-4-2-3-5-4-2---|
C|---0-5-4-2-3-5-4-2-0-5-4-2-3-5-4-2-0-5-4-2-3-5-4-2-0-5-4-2-3-5-4-2---|
     . . . . . . . . . . . . . . . . . . . . . . . . . . . . . . . .
I'm pretty sure this is right! They play this like 18xs then they throw a scream into it 
I didn't tab
but I'm pretty sure you can figure it out


Both Guitars
 2:10
 ______________________________________________
D|--------------------------------------------|
A|--------------------------------------------|
F|--------------------------------------------|
C|---3-00-0-3-00-0-3-00-0-3-------------------|
G|---3-00-0-3-00-0-3-00-0-3-------1-4-3-------|
C|---3-00-0-3-00-0-3-00-0-3-0-1-4-------4-1---|
       .. .   .. .   .. .

Guitar 1        Guitar 2             Guitar 1       Guitar 2
 2:44            2:45                 2:46           2:47
 __________    ________________    __________    ________________
D|--------|   D|--------------|   D|--------|   D|--------------|
A|--------|   A|--------------|   A|--------|   A|--------------|
F|--------|   F|--------------|   F|--------|   F|--------------|
C|---00---|   C|---0-000000---|   C|---00---|   C|---0-000000---|
G|---00---|   G|---0-000000---|   G|---00---|   G|---0-000000---|
C|---00---|   C|---0-000000---|   C|---00---|   C|---0-000000---|
     ..            . ......            ..            . ......

Guitar 1       Guitar 2           Guitar 1       Both Guitars
 2:48           2:49               2:49           2:50
 __________    ________________    __________    ________________
D|--------|   D|--------------|   D|--------|   D|--------------|
A|--------|   A|--------------|   A|--------|   A|--------------|
F|--------|   F|--------------|   F|--------|   F|--------------|
C|---00---|   C|---0-000000---|   C|---00---|   C|--------------|
G|---00---|   G|---0-000000---|   G|---00---|   G|----4-1-------|
C|---00---|   C|---0-000000---|   C|---00---|   C|---5----5-2---|
     ..            . ......            ..            .

Both Guitars
 2:52
 ________________________________________________________
D|------------------------------------------------------|
A|------------------------------------------------------|
F|------------------------------------------------------|
C|---00-0-000000-00--000000-00-0-000000-00--------------|repeat 4x
G|---00-0-000000-00--000000-00-0-000000-00----4-1-------|
C|---00-0-000000-00--000000-00-0-000000-00---5----5-2---|
     .. . ...... ..  ...... .. . ...... ..   .

Both Guitars
 3:20
 _______________________________________________________________________
D|---------------------------------------------------------------------|
A|---------------------------------------------------------------------|
F|---------------------------------------------------------------------|
C|---000-000-000-000-000-000-000-000-555-555-555-888-444-444-444-777---|Repeat
G|---000-000-000-000-000-000-000-000-555-555-555-888-444-444-444-777---|
C|---000-000-000-000-000-000-000-000-555-555-555-888-444-444-444-777---|
     ... ... ... ... ... ... ... ... ... ... ... ... ... ... ... ...

I'm not sure what Guitar 2 plays in the background?
But Guitar 1 plays it 2xs then Both Guitars play it 3xs

Guitar 1
 3:34
 __________________________________________________________________
D|----------------------------------------------------------------|
A|----------------------------------------------------------------|
F|----------------------------------------------------------------|
C|----------------------------------------------------------------|Repeat 5x
G|---h8p0h7p0h8p0h7p0h8p0h7p0h8p0h7p0-555777555888-444666444777---|
C|----------------------------------------------------------------|


Once again I'm not sure what the rythm is

Both Guitars
 4:02
 __________________________________________
D|-----------------------------------------|
A|-----------------------------------------|
F|-----------------------------------------|
C|-----------------------------------------|
G|-----------------------------------------|
C|-----------------------------------------|

What ever Rythm Guitar plays they just keep playing till the end

Guitar 1
 4:24
_________________________________________________________________________________
D|--------------------------------------------------------------------------------|
A|--------------------------------------------------------------------------------|
F|--------------------------------------------------------------------------------|
C|--------------------------------------------------------------------------------|
G|---h8p0h8p0h8p0h8p0h8p0h8p0h8p0h8p0h8-h7p0h7p0h7-h4p0h4p0h4p0h4p0h4h5p4h5p------|
C|--------------------------------------------------------------------------------|

I think the ending is something like this?

Both Guitars
 5:03
 ________________________________
D|----00-00-00-00-00-00-00-00---|
A|----33-33-33-33-33-33-33-33---|
F|------------------------------|
C|------------------------------|
G|------------------------------|
C|---6--6--6--5--3--3--3--3-----|


This my first tab and I think its pretty accurate
I know most of the beginning is right its just the outro that's kinda tricky I'm sure 
figure it out.
Any questions or comments Email me at ThursdayNick@AOL.com  Have Fun! Enjoy

                                      Mortal Treason
Tap to rate this tab
# A B C D E F G H I J K L M N O P Q R S T U V W X Y Z