Song name
# A B C D E F G H I J K L M N O P Q R S T U V W X Y Z

Mortal Treason - A Call To The Martyrs tab

-------------------------------------------------------------------------------
                   A Call To The Martyrs - Mortal Treason
-------------------------------------------------------------------------------
Tabbed by: behemothrules
Email: mad_madi_rocks@hotmail.com

Tuning: Drop c#



 0:00

D#--------------------------------------------------------------------------|
A#--------------------------------------------------------------------------|
F#--------------------------------------------------------------------------|
C#--2-2-0-0-2-0------------------------------2-2-0-0-2-0-2-0-2-0------------|
G#--2-2-0-0-2-0--X 24------------------------2-2-0-0-2-0-2-0-2-0------------|
C#--2-2-0-0-2-0----------2-2-0-0-2-2-0-0-----2-2-0-0-2-0-2-0-2-0------------|

PM  o o o o o o          o o o o o o o o     o o o o o o o o o o


D#-----------------------------------|
A#-----------------------------------|
F#-----------------------------------|
C#--  -2-2-0-0-2-0---X8--------------|
G#-- --2-2-0-0-2-0-------------------|
C#-----2-2-0-0-2-0-------------------|



 PM    o  o o o o o


0:31

D#--------------------------------*-------------------------------|
A#--------------------------------* ------------------------------|
F#--------------------------------*-------------------------------|
C#---2--------------1-------------*---2-h3-p2-p0-------X4---------|
G#---2-------3--2---1-----2-1-----*-------------------------------|
C#---2--------------1-------------*-------------------------------|

0:31

D#--------------------------------------|
A#--------------------------------------|
F#--------------------------------------|
C#---2-------------1------- ------------|
G#---2----3-2------1-----2----1---------|
C#---2-------------1--------------------|



0:49



D#-----------------------------------------------------------------------|
A#-----------------------------------------------------------------------|
F#-----------------------------------------------------------------------|
C#----0--- -0-----0-0-0-0---------------0----0----0-0-0-1----------------|
G#----0-----0-----0-0-0-0----X3---------0----0----0-0-0-1----X9----------|
C#----0-----0-----0-0-0-0---------------0----0----0-0-0-1----------------|

PM    o     o     o  o o o              o    o    o o o o



1:04

D#--------------------------------------------------------------|
A#--------------------------------------------------------------|
F#--------------------------------------------------------------|
C#--3-3-3-3-3-3-3-3-3-3-3-3-6-6-6-6-6-6-1-1-1-1-1-1-------------|
G#- 3-3-3-3-3-3-3-3-3-3-3-3-6-6-6-6-6-6-1-1-1-1-1-1-------------|
C#--3-3-3-3-3-3-3-3-3-3-3-3-6-6-6-6-6-6-1-1-1-1-1-1-------------|

PM    o o   o o   o o   o o   o o   o o   o o   o o


D#------------------------------------------------------------------------|
A#------------------------------------------------------------------------|
F#------------------------------------------------------------------------|
C#-3-3-3-3-3-3-3-3-3-3-3-3-8-8-8-8-8-8-1-1-1-1-1-1------------------------|
G#-3-3-3-3-3-3-3-3-3-3-3-3-8-8-8-8-8-8-1-1-1-1-1-1------------------------|
C#-3-3-3-3-3-3-3-3-3-3-3-3-8-8-8-8-8-8-1-1-1-1-1-1------------------------|

PM   o o   o o   o o   o o   o o   o o   o o   o o

1:12

D#---------------------------------------------------------------------------|
A#---------------------------------------------------------------------------|
F#---------------------------------------------------------------------------|
C#---3--p0--5--p0--6--p0--5--p0--6-----3--p0--5--p0--6--p0--5--p0--8----X2---|
G#------------------------ ---------6--------------------------------6-------|
C#---------------------------------------------------------------------------|


1:24


D#---------------------------------------------------------------------------|
A#---------------------------------------------------------------------------|
F#---------------------------------------------------------------------------|
C#--- 0-0-0-----0-0-0-----0-0-0-----0-0-0-----0-0-----0-0-0------------------|
G#--- 0-0-0-----0-0-0-----0-0-0-----0-0-0-----0-0-----0-0-0----X4------------|
C#-- -0-0-0-----0-0-0-----0-0-0-----0-0-0-----0-0-----0-0-0------------------|
      _____     _____     ______    _____             _____
        3         3         3         3                 3
PM    o o o     o o o     o o o     o o o     o o     o o o



1:39


D#---------------------------------------------------------------------------|
A#---------------------------------------------------------------------------|
F#---------------------------------------------------------------------------|
C#---0-0--10-7--10--7--10-7--------0-0--9-7--9-7--9-7-----------X2-----------|
G#---0-0------------------------- -0-0---------------------------------------|
C#---0-0---------------------------0-0---------------------------------------|

PM   o o                           o o


1:47

D#--------------------------------------------------------------------|
A#--------------------------------------------------------------------|
F#--------------------------------------------------------------------|
C#--0-0--------------------- 0-0------------------------------X2------|
G#--0-0--------------------- 0-0--------------------------------------|
C#--0-0--3-0--3-0--3-0-------0-0--2-0--2-0--2-0-----------------------|

PM  o o                             o o

1:53

D#-----------------------------------------------------------------|
A#-----------------------------------------------------------------|
F#-----------------------------------------------------------------|
C#----0-0----10-----0---9----0-0---10---0---9---0-0----------------|
G#----0-0-----x-----0---x----0-0----x---0---x---0-0----------------|
C#----0-0-----8-----0---7----0-0----8---0---7- -0-0----------------|
PM    o o           o        o o        o       o o

D#--------------------------------------------------------------|
A#--------------------------------------------------------------|
F#--------------------------------------------------------------|
C#--12--12--12--12---10--10--10--10--------X4-------------------|
G#---x---x---x---x----x---x---x---x-----------------------------|
C#--10--10--10--10----8---8---8---8-----------------------------|


2:11

D#---------------------------------*---------------------------|
A#---------------------------------* --------------------------|
F#---------------------------------*---------------------------|
C#---2---------------1-------------*---2-h3-p2-p0--------------|
G#---2-------3--2----1-----2-1-----*------------------X4-------|
C#---2---------------1-------------*---------------------------|

D#--------------------------------------|
A#--------------------------------------|
F#--------------------------------------|
C#---2-------- ------1------------------|
G#---2-----3-2-------1-----2----1-------|
C#---2---------------1------------------|



2:30

At this part you have to listen and bend the A# string (12th fret) exactly right so you 
hit the right pitch.

D#-----------------------------------------------------------------|
A#------------12-b12-b12-b12-b12-b12-------------------------------|
F#-----------------------------------------------------------------|
C#---0-0-------------------------------------------X4--------------|
G#---0-0-----------------------------------------------------------|
C#---0-0-----------------------------------------------------------|

PM   o o


2:36

A#---------------------- ------------------------------------|
F#---------------------------------------------- ------------|
C#----0-0-0-0-0-0-0-0-0-0-0-0-0-0-0-0---1-1-1-1-1-1-1-1------|
G#----0-0-0-0-0-0-0-0-0-0-0-0-0-0-0-0---1-1-1-1-1-1-1-1------|
C#----0-0-0-0-0-0-0-0-0-0-0-0-0-0-0-0---1-1-1-1-1-1-1-1------|
PM    o o o o o o o o o o o o o o o o   o o o o o o o o

D#---------------------------|
A#---------------------------|
F#---------------------------|
C#--3-3-3-3-3-3-3-3----------|
G#--3-3-3-3-3-3-3-3----------|
C#--3-3-3-3-3-3-3-3----------|
PMo o o o o o o o o



D#-----------------------------------------------------------------|
A#---------------------- ------------------------------------------|
F#-----------------------------------------------------------------|
C#---0-0-0-0-0-0-0-0-0-0-0-0-0-0-0-0-0-0--3-3-3-3-3-3-3-3----------|
G#---0-0-0-0-0-0-0-0-0-0-0-0-0-0-0-0-0-0--3-3-3-3-3-3-3-3----------|
C#---0-0-0-0-0-0-0-0-0-0-0-0-0-0-0-0-0-0--3-3-3-3-3-3-3-3----------|
PM   o o o o o o o o o o o o o o o o o o  o o o o o o o o


D#-----------------------------------------------------|
A#---------------------- ------------------------------|
F#-----------------------------------------------------|
C#---1-1-1-1-1-1-1-1-----------------------------------|
G#---1-1-1-1-1-1-1-1-----------------------------------|
C#---1-1-1-1-1-1-1-1-----------------------------------|
PM   o o o o o o o o

D#---------------------------------------------------------|
A#---------------------- ----------------------------------|
F#---------------------------------------------- ----------|
C#---0-0-0-0-0-0-0-0-0-0-0-0-0-0-0-0---1-1-1-1-1-1-1-1-----|
G#---0-0-0-0-0-0-0-0-0-0-0-0-0-0-0-0---1-1-1-1-1-1-1-1-----|
C#---0-0-0-0-0-0-0-0-0-0-0-0-0-0-0-0---1-1-1-1-1-1-1-1-----|
PM    o o o o o o o o o o o o o o o o   o o o o o o o o

D#---------------------------|
A#---------------------------|
F#---------------------------|
C#--3-3-3-3-3-3-3-3----------|
G#--3-3-3-3-3-3-3-3----------|
C#--3-3-3-3-3-3-3-3----------|
PMo o o o o o o o o


D#-----------------------------------------------------------------|
A#---------------------- ------------------------------------------|
F#-----------------------------------------------------------------|
C#---0-0-0-0-0-0-0-0-0-0-0-0-0-0-0-0-0-0--3-3-3-3-3-3-3-3----------|
G#---0-0-0-0-0-0-0-0-0-0-0-0-0-0-0-0-0-0--3-3-3-3-3-3-3-3----------|
C#---0-0-0-0-0-0-0-0-0-0-0-0-0-0-0-0-0-0--3-3-3-3-3-3-3-3----------|
PM   o o o o o o o o o o o o o o o o o o  o o o o o o o o


D#-----------------------------------------------------|
A#---------------------- ------------------------------|
F#-----------------------------------------------------|
C#---1-1-1-1-1-1-1-1-----------------------------------|
G#---1-1-1-1-1-1-1-1-----------------------------------|
C#---1-1-1-1-1-1-1-1-----------------------------------|
PM   o o o o o o o o





D#--------|
A#--------|
F#--------|
C#----0---|
G#----0---|
C#----0---|

Well thats it! This is my first tab so I hope you liked it (:
************************************

| /   slide up
| \   slide down
| h   hammer-on
| p   pull-off
| ~   vibrato
| +   harmonic
| x   Mute note
| b   Bend
| pb  Pre-bend
| br  Bend release
| pbr Pre-bend release
| brb Bend release bend

************************************
Tap to rate this tab
# A B C D E F G H I J K L M N O P Q R S T U V W X Y Z