Guitaretab - guitar tabs
Song name
# A B C D E F G H I J K L M N O P Q R S T U V W X Y Z

Mortal Treason - Khampa Nomads tab

-------------------------------------------------------------------------------
			     Khampa Nomads - Mortal Treason
-------------------------------------------------------------------------------
Tabbed by: Nate Martinez
Email: supafly_122@yahoo.com

Tuning:  step down (ex: D# A# D# G# B# e#)

e|-------------------------------------------------------------------------------|
B#|------------------------------------------------------------------------------|
G#|------------------------------------------------------------------------------|
D#|-0-0-0-0-0-0-0----0-0-0-0-0-0--7-5-6------------------------------------------|
A#|-0-0-0-0-0-0-0----0-0-0-0-0-0--7-5-6------------------------------------------|
D#|-0-0-0-0-0-0-0----0-0-0-0-0-0--7-5-6------------------------------------------|
							4x (on the last one let it ring)

e#|------------------------------------------------------------------------------|
B#|------------------------------------------------------------------------------|
G#|------------------------------------------------------------------------------|
D#|------------------x---x-x-x-x-x-x---------------------------------------------|
A#|------------------x---x-x-x-x-x-x---------------------------------------------|
D#|---Pick slide---x---x-x-x-x-x-x-----------------------------------------------|
							2x (last one without the pick slide)

e#|------------------------------------------------------------------------------|
B#|------------------------------------------------------------------------------|
G#|------------------------------------------------------------------------------|
D#|--777--888--555--777--333--555--222--333---x---x-x-x-x-x-x--------------------|
A#|-------------------------------------------------------x---x-x-x-x-x-x--------|
D#|-------------------------------------------------------x---x-x-x-x-x-x--------|

							4x

e#|------------------------------------------------------------------------------|
B#|------------------------------------------------------------------------------|
G#|------------------------------------------------------------------------------|
D#|--x-x-x-x-x-x--x-x-x-x-x-x----x-x-x-x-x-x-x-x-x-x-----------------------------|
A#|--x-x-x-x-x-x--x-x-x-x-x-x----x-x-x-x-x-x-x-x-x-x-----------------------------|
D#|--x-x-x-x-x-x--x-x-x-x-x-x----x-x-x-x-x-x-x-x-x-x-----------------------------|

							2x

e#|------------------------------------------------------------------------------|
B#|------------------------------------------------------------------------------|
G#|------------------------------------------------------------------------------|
D#|------------------------------------------------------------------------------|
A#|------------------------------------------------------------------------------|
D#|---000----444444444444--------------------------------------------------------|

							4x

e#|------------------------------------------------------------------------------|
B#|------------------------------------------------------------------------------|
G#|------------------------------------------------------------------------------|
D#|--0-0---4-4-4-4-4-4---3-3-3-3-3-3-3-3-----------------------------------------|
A#|--0-0---4-4-4-4-4-4---3-3-3-3-3-3-3-3-----------------------------------------|
D#|--0-0---4-4-4-4-4-4---3-3-3-3-3-3-3-3-----------------------------------------|

							4x

e#|------------------------------------------------------------------------------|
B#|------------------------------------------------------------------------------|
G#|------------------------------------------------------------------------------|
D#|--00---444444---33333333------------------------------------------------------|
A#|--00---444444---33333333------------------------------------------------------|
D#|--00---444444---33333333------------------------------------------------------|

							2x

e#|-------------------------------------------------------------------------------|
B#|-------------------------------------------------------------------------------|
G#|-------------------------------------------------------------------------------|
D#|--x--x----x4--x4--x4--x4--x4--x4-------x3--x3--x3--x3--x3--x3--x3--x3-------0--|
A#|--x--x----x4--x4--x4--x4--x4--x4-------x3--x3--x3--x3--x3--x3--x3--x3-------0--|
D#|--x--x----x4--x4--x4--x4--x4--x4-------x3--x3--x3--x3--x3--x3--x3--x3-------0--|

							2x (palm muted) (let the last note ring)

e#|------------------------------------------------------------------------------|
B#|------------------------------------------------------------------------------|
G#|------------------------------------------------------------------------------|
D#|--3--2p--02h--3--2-----------------------------------------------------------|
A#|------------------------------------------------------------------------------|
D#|------------------------------------------------------------------------------|

							8x

e#|------------------------------------------------------------------------------|
B#|------------------------------------------------------------------------------|
G#|------------------------------------------------------------------------------|
D#|--1--p0-----x---x-x-x-x-x-x---------------------------------------------------|
A#|--1--p0-----x---x-x-x-x-x-x---------------------------------------------------|
D#|--1--p0-----x---x-x-x-x-x-x---------------------------------------------------|

							4x

e#|------------------------------------------------------------------------------|
B#|------------------------------------------------------------------------------|
G#|------------------------------------------------------------------------------|
D#|--3--2p--02h--3--2-----------------------------------------------------------|
A#|------------------------------------------------------------------------------|
D#|------------------------------------------------------------------------------|

							4x

e#|------------------------------------------------------------------------------|
B#|------------------------------------------------------------------------------|
G#|------------------------------------------------------------------------------|
D#|--1--p0-----x---x-x-x-x-x-x---------------------------------------------------|
A#|--1--p0-----x---x-x-x-x-x-x---------------------------------------------------|
D#|--1--p0-----x---x-x-x-x-x-x---------------------------------------------------|

							4x

e#|------------------------------------------------------------------------------|
B#|------------------------------------------------------------------------------|
G#|------------------------------------------------------------------------------|
D#|--3--2p--02h--3--2-----------------------------------------------------------|
A#|------------------------------------------------------------------------------|
D#|------------------------------------------------------------------------------|

							4x
[ Tab from: http://www.guitaretab.com/m/mortal-treason/66584.html ]
e#|------------------------------------------------------------------------------|
B#|------------------------------------------------------------------------------|
G#|------------------------------------------------------------------------------|
D#|--1--p0-----x---x-x-x-x-x-x---------------------------------------------------|
A#|--1--p0-----x---x-x-x-x-x-x---------------------------------------------------|
D#|--1--p0-----x---x-x-x-x-x-x---------------------------------------------------|

							4x

e#|------------------------------------------------------------------------------|
B#|------------------------------------------------------------------------------|
G#|------------------------------------------------------------------------------|
D#|--3--2p--02h--3--2-----------------------------------------------------------|
A#|------------------------------------------------------------------------------|
D#|------------------------------------------------------------------------------|

							4x

e#|------------------------------------------------------------------------------|
B#|------------------------------------------------------------------------------|
G#|------------------------------------------------------------------------------|
D#|--1--p0-----x---x-x-x-x-x-x---------------------------------------------------|
A#|--1--p0-----x---x-x-x-x-x-x---------------------------------------------------|
D#|--1--p0-----x---x-x-x-x-x-x---------------------------------------------------|

							8x


E#|-----------------------------------------------------------------------------|
B#|-----------------------------------------------------------------------------|
G#|---3-----7-----8---7---------------------------------------------------------|
D#|---3-----7-----8---7---------------------------------------------------------|
A#|---1-----5-----6---5---------------------------------------------------------|
D#|---1-----5-----6---5---------------------------------------------------------|

			^^^(soft part)^^^	6x (Clean)

E#|-----------------------------------------------------------------------------|
B#|-----------------------------------------------------------------------------|
G#|----3-----7-----8---7--------------------------------------------------------|
D#|----3-----7-----8---7--------------------------------------------------------|
A#|----1-----5-----6---5--------------------------------------------------------|
D#|----1-----5-----6---5--------------------------------------------------------|

						4x (Distorted)

E#|-----------------------------------------------------------------------------|
B#|-----------------------------------------------------------------------------|
G#|---3--p2--h0--p2--h0---------------------------------------------------------|
D#|---------------------------3---3--p2--h0--p2--h0-----------------------------|
A#|-------------------------------------------------------3---------------------|
D#|-----------------------------------------------------------------------------|

							2x (Really fast)

E#|-----------------------------------------------------------------------------|
B#|-----------------------------------------------------------------------------|
G#|-------------3----------2----------------------------------------------------|
D#|----2h3-----2--h3-----------------------------------------------------------|
A#|-----------------------------------------------------------------------------|
D#|-----------------------------------------------------------------------------|

							4x (Really fast)

E#|-----------------------------------------------------------------------------|
B#|-----------------------------------------------------------------------------|
G#|---3--p2--h0--p2--h0---------------------------------------------------------|
D#|---------------------------3---3--p2--h0--p2--h0-----------------------------|
A#|-------------------------------------------------------3---------------------|
D#|-----------------------------------------------------------------------------|

							2x (Really fast)

E#|-----------------------------------------------------------------------------|
B#|-----------------------------------------------------------------------------|
G#|-------------3----------2----------------------------------------------------|
D#|----2h3-----2--h3-----------------------------------------------------------|
A#|-----------------------------------------------------------------------------|
D#|-----------------------------------------------------------------------------|

							4x (Really fast)


E#|-----------------------------------------------------------------------------|
B#|-----------------------------------------------------------------------------|
G#|---3--p2--h0--p2--h0---------------------------------------------------------|
D#|---------------------------3---3--p2--h0--p2--h0-----------------------------|
A#|-------------------------------------------------------3---------------------|
D#|-----------------------------------------------------------------------------|

							2x (Really fast)

E#|-----------------------------------------------------------------------------|
B#|-----------------------------------------------------------------------------|
G#|-------------3----------2----------------------------------------------------|
D#|----2h3-----2--h3-----------------------------------------------------------|
A#|-----------------------------------------------------------------------------|
D#|-----------------------------------------------------------------------------|

							4x (Really fast)


E#|-----------------------------------------------------------------------------|
B#|-----------------------------------------------------------------------------|
G#|---3--p2--h0--p2--h0---------------------------------------------------------|
D#|---------------------------3---3--p2--h0--p2--h0-----------------------------|
A#|-------------------------------------------------------3---------------------|
D#|-----------------------------------------------------------------------------|

							2x (Really fast)

E#|-----------------------------------------------------------------------------|
B#|-----------------------------------------------------------------------------|
G#|-------------3----------2----------------------------------------------------|
D#|----2h3-----2--h3-----------------------------------------------------------|
A#|-----------------------------------------------------------------------------|
D#|-----------------------------------------------------------------------------|

							4x (Really fast)


E#|-----------------------------------------------------------------------------|
B#|-----------------------------------------------------------------------------|
G#|-----------------------------------------------------------------------------|
D#|-x-x-x-x-x-x-x-----x-x-x-x-x-x-x-x-x-x---x-x-x-x-x-x-x-x-x-x-----------------|
A#|-x-x-x-x-x-x-x-----x-x-x-x-x-x-x-x-x-x---x-x-x-x-x-x-x-x-x-x-----------------|
D#|-x-x-x-x-x-x-x-----x-x-x-x-x-x-x-x-x-x---x-x-x-x-x-x-x-x-x-x----4444444------|

							4x (last time let it ring on 0)

| /  slide up
| \  slide down
| h  hammer-on
| p  pull-off
| ~  vibrato
| +  harmonic
| x  Mute note
===============================================================================
Related for Khampa Nomads tab