Song name
# A B C D E F G H I J K L M N O P Q R S T U V W X Y Z

Mortal Treason - Sunrise Over A Sea Of Blood tab

.=palm mute
/=slide yr hand
p=pull off
h=hold the fret
ha=hammer on fret


E]------------------------------------------------------------------------|
B]------------------------------------------------------------------------|
G]------------------------------------------------------------------------|
D]-7--9--10--12--10--9---5-5/7-5-5-5/7------------------------------------|
A]-7--9--10--12--10--9---7-7/9-7-7-7/8------------------------------------|
D]------------------------------------------------------------------------|

E]------------------------------------------------------------------------|
B]------------------------------------------------------------------------|
G]------------------------------------------------------------------------|
D]------------------------/5-5/7-5-5-5/7----------------------------------|
A]-000-------------8-10-11/7-7/9-7-7-7/8-000------------7-6-5-4-----------|
D]-000-0000000000-0-0-0------------------000-0000000000-9-8-7-6-----------|
DO THIS BOTH ABOUT 6X

E]------------------------------------------------------------------------|
B]------------------------------------------------------------------------|
G]------------------------------------------------------------------------|
D]-7-5-7-5-8--7-55---------------------------------77777-7-5-7-5----------|
A]-8-7-8-7-10-8-77-[6X]-------88888-----1010101010-88888-8-7-8-7----------|
D]-----------------------55555-----77777----------------------------------|

E]------------------------------------------------------------------------|
B]------------------------------------------------------------------------|
G]------------------------------------------------------------------------|
D]---------------------------7-5-7-5-8--7-55------------------------------|
A]------88888-----1010101010-8-7-8-7-10-8-77------------------------------|
D]-55555-----77777--------------------------------------------------------|

E]------------------------------------------------------------------------|
B]------------------------------------------------------------------------|
G]------------------------------------------------------------------------|
D]10101010101010101010101010111111111111-777777776666666------------------|
A]121212121212121111111111118-8-8-8-8-8--888888888888888------------------|
D]------------------------------------------------------------------------|

E]------------------------------------------------------------------------|
B]------------------------------------------------------------------------|
G]------------------------------------------------------------------------|
D]10101010101010101212121212-9--9--8-7-7-6--------------------------------|
A]12121212121212121313131313-11-10-9-9-8-7--------------------------------|
D]------------------------------------------------------------------------|
DO THAT A COUPLE OF TIMES
THEN FASTER

E]------------------------------------------------------------------------|
B]------------------------------------------------------------------------|
G]------------------------------------------------------------------------|
D]------------------------------------------------------------------------|
A]0-8-7-8-4-0-8-7-8-4-10-10-8-8P7-[7X]------------------------------------|
D]0---------0-------------------------------------------------------------|

E]-------------------------------------------------------------------------|
B]-------------------------------------------------------------------------|
G]-------------------------------------------------------------------------|
D]7H-10HA-9HA-8P9P-5-[8X]--------------------------------------------------|
A]-------------------------------------------------------------------------|
D]-------------------------------------------------------------------------|
Tap to rate this tab
 
# A B C D E F G H I J K L M N O P Q R S T U V W X Y Z