Song name
# A B C D E F G H I J K L M N O P Q R S T U V W X Y Z

Mortal Treason - Feed The Week tab

TUNNING C#G#C#F#A#D#

 /-SLIDE
 *-DEAD NOTE

0:00 - 0:14                                
GUITAR 1                          
                                  
D#|-------------|                 
A#|-------------|                 
F#|-7-7--7-7-8--|                 
C#|-7-7--7-7-8--|                 
G#|-------------|                 
C#|-------------|                 
                                  
GUITAR 2              8X  SHORT PAUES AFTER
                             4TH TIME
D#|-------------|                 
A#|-------------|                 
F#|-------------|                 
C#|-0-0--0-0-1--|                 
G#|-0-0--0-0-1--|                 
C#|-0-0--0-0-1--|                 
                                  



0:14 - 0:29
GUITAR 1 &2                                  
                                             

D#|---------------|    |---------------|     
A#|---------------|    |---------------|     
F#|---------------|    |---------------|     
C#|-0-0-0--00000--| 4X |--00000--0-0-0-| 4X 
G#|-0-0-0--00000--|    |--00000--0-0-0-|     
C#|-0-0-0--00000--|    |--00000--0-0-0-|  
 PM************************************

0:29 - 0:42
GUITAR 1 & 2

D#|-------------------------------------------------------|
A#|-------------------------------------------------------|
F#|-------------------------------------------------------|
C#|-------------------------------------------------------| 4X
G#|-0-0-0-1-0-0-0-0-0-1-0-0-0-0-0-1-0-0-0-0-0-1-0-2-2-3-3-|
C#|-0-0-0-1-0-0-0-0-0-1-0-0-0-0-0-1-0-0-0-0-0-1-0-2-2-3-3-|
 PM*******************************************************



0:42 - 1:07
GUITAR 1

D#|---------------------------------------------|
A#|---------------------------------------------| 
F#|---------------------------------------------| 
C#|---------------------------------------------|
G#|-0-0-0---0-0-0---0-0-0--0-0-0---0-0-0--------| 
C#|-0-0-0---0-0-0---0-0-0--0-0-0---0-0-0--------|

 
                                                    4X
GUITAR 2

D#|---------------------------------------------|
A#|---------------------------------------------| 
F#|-------------------------------------7H6-----|  
C#|---------------------------------------7H6---| 
G#|-0-0-0---0-0-0---0-0-0--0-0-0---0-0-0----7H6-| 
C#|-0-0-0---0-0-0---0-0-0--0-0-0---0-0-0--------|



1:07 - 1:10

GUITAR 1

D#|---------------|             
A#|---------------|             
F#|---------------|            
C#|---------------| X2         
G#|-888777888777--|             
C#|---------------|   


1:10 - 1:14

GUITAR 1

D#|-----------------|             
A#|-----------------|             
F#|-----------------|            
C#|-----------------|        
G#|-888777888777777-|             
C#|-----------------|

                        X2

GUITAR 2           
D#|-----------------|               
A#|-----------------|                
F#|-----------------|             
C#|-----------------|           
G#|-----------------|            
C#|-333222333222222-|    



1:14 - 1:28

GUITAR 1&2

E|--------------------| 
B|--------------------|       P.M. FIRST 4 TIMES  
G|--------------------|      LAST 4 PLLY WITH NONE
D|--------------------|  8X               
A|--------------------| 
D|-111100111100000000-|  



1:28 - 1:31

GUITARS 1 & 2

D#|----------------------------|
A#|----------------------------|
F#|----------------------------| 
C#|----------------------------|
G#|-3-2-0--3-2-0--3-2-0--3-2-0-|
C#|-3-2-0--3-2-0--3-2-0--3-2-0-|
 PM****************************


I DON'T HAVE THE REST 
ILL GET BACK TO YOU


                                                 


Tap to rate this tab
 
# A B C D E F G H I J K L M N O P Q R S T U V W X Y Z