Song name
# A B C D E F G H I J K L M N O P Q R S T U V W X Y Z

Mortal - Devil May Care tab

Help us improve GuitareTab! Take a short survey!
   INTRO. THE DEVIL MAY CARE   THE MORTAL    TUNING:EADGBE                        (4X)
  _________________________________________________                   
|--------------------------------------------------|
|--------------------------------------------------|
|------4-------5-------7-------9-------------------|
|------2-------2-------4-------9-------------------|
|------2-------3-------5-------7---9\\\\\\\\\\1----|
|-0000----0000----0000----0000---------------------|
                                                        (10X)  
|--------------------------------------------------|
|--------------------------------------------------|
|------------4---3---2-0--------------4---3---2-0--|
|-2-2----4-5---5---4-------2-2----4-5---5---4------|
|-2-2--7-------------------2-2--7------------------|
|-0-0----------------------0-0---------------------|
 
THE END 
  ENJOY!
Related for Devil May Care tab