Guitaretab - guitar tabs
Song name
# A B C D E F G H I J K L M N O P Q R S T U V W X Y Z

Morten Abel - Gravedigging tab

Artist : Morten Abel			  
Song   : Gravedigging			  
Length : 4:13				  
Album  : Being Everything Knowing Nothing 

Transcribed by GuitarEspen

Standard Tuning

INTRO: [0:00 min]

Guitar 1 : Acoustic Steel	           			 Play 2 Times 
E|----------------------------------------------------------------------------------|------|
B|----------------------------------------------------------------------------------|------|
G|----------------------------------------------------------------------------------|------|
D|----------------------------------------------------------------------------------|------|
A|------0---2---2-------2------2------------------------0---0----------2------------|----0-|
E|--3---------------5-------5------3-----------0---3------------3---5------5-----3--|--3---|

Guitar 2 : Acoustic Steel							Play 2 Times
E|-----------------------------------------------------------------------------------------|
B|-----------------------------1-1-1-1-1-1-1-1-1-1-----------------------------------------|
G|-------------7-7-7-7-7-7-7---0-0-0-0-0-0-0-0-0-0--7-7-7-7-7-x-----7---5-5-5-5-5-5-5-5-7-7|
D|-5-5-5-5-5-x-7-7-7-7-7-7-7---2-2-2-2-2-2-2-2-2-2--7-7-7-7-7-x-5---7---5-5-5-5-5-5-5-5-7-7|
A|-5-5-5-5-5-x-5-5-5-5-5-5-5---3-3-3-3-3-3-3-3-3-3--5-5-5-5-5-x-5---5---3-3-3-3-3-3-3-3-5-5|
E|-3-3-3-3-3-x--------------------------------------------------3--------------------------|



VERSE: [0:30 min]
[ Tab from: http://www.guitaretab.com/m/morten-abel/70179.html ]
Guitar 2 : Acoustic Steel							Play 2 Times
E|-----------------------------------------------------------------------------------------|
B|-----------------------------1-1-1-1-1-1-1-1-1-1-----------------------------------------|
G|-------------7-7-7-7-7-7-7---0-0-0-0-0-0-0-0-0-0--7-7-7-7-7-x-----7---5-5-5-5-5-5-5-5-7--|
D|-5-5-5-5-5-x-7-7-7-7-7-7-7---2-2-2-2-2-2-2-2-2-2--7-7-7-7-7-x-5---7---5-5-5-5-5-5-5-5-7--|
A|-5-5-5-5-5-x-5-5-5-5-5-5-5---3-3-3-3-3-3-3-3-3-3--5-5-5-5-5-x-5---5---3-3-3-3-3-3-3-3-5--|
E|-3-3-3-3-3-x--------------------------------------------------3--------------------------|



CHORUS: [0:59 min]

Guitar 1 : Acoustic Steel				       	 Play 2 Times
E|--------------------------------------------------------------------------|------|
B|--------------------------------------------------------------------------|------|
G|--------------------------------------------------------------------------|------|
D|--------------------------------------------------------------------------|------|
A|--2---2-------2------2------------------------0---0----------2------------|----0-|
E|----------5-------5------3-----------0---3------------3---5------5-----3--|--3---|

Guitar 2 : Acoustic Steel
E|-----------------------------------------------------------------------------------------|
B|-----------------------------1-1-1-1-1-1-1-1-1-1-----------------------------------------|
G|-------------7-7-7-7-7-7-7---0-0-0-0-0-0-0-0-0-0--7-7-7-7-7-x-----7---5-5-5-5-5-5-5-5-7-7|
D|-5-5-5-5-5-x-7-7-7-7-7-7-7---2-2-2-2-2-2-2-2-2-2--7-7-7-7-7-x-5---7---5-5-5-5-5-5-5-5-7-7|
A|-5-5-5-5-5-x-5-5-5-5-5-5-5---3-3-3-3-3-3-3-3-3-3--5-5-5-5-5-x-5---5---3-3-3-3-3-3-3-3-5-5|
E|-3-3-3-3-3-x--------------------------------------------------3--------------------------|


And the song carries on like this :) Enjoy!
Related for Gravedigging tab
Gravedigging chords by Morten Abel