Song name
# A B C D E F G H I J K L M N O P Q R S T U V W X Y Z

Morten Abel - River Phoenix tab

Help us improve GuitareTab! Take a short survey!
Highlighted       Show chord diagrams
-----------------------------------------------------------------------------
                      River Phoenix - Morten Abel
-----------------------------------------------------------------------------
Tabbed By:Me.

By: M.Abel

Album: Some Of US Will Make It

Awesomness: Awesome!

--------------------------------------
Capo on Fret 2

Riff
|--------------------------|
|--------------------------|
|--------------------------|
|-2----------2-2-2---------|
|-2----------2-2-2---------|
|-0-3p0-3p0--0-0-0-3p0-3p0-|


Awake when the city sleeps
this hotel is dangerous
Poor tom's doing favours for sailors
these walls are paper thin
D
next door there's a bakery
A
I can go n' get coffe
D
but it wouldn't hurt me
D
if only today, I mean only today
D
went first for a bloody mary

Riff

A
Electroshocks in the sun
Riff
you can fry an egg on the pavement
A
it might just be too hot for me
D
never been to Paris
A                  
but what a great name to put on a girl
D
And river phoenix
what a great name to put on a boy

Riff

D
and river phoenix
what a great name to put on a boy

Riff

B                 E (with Riff)
nobody owns the truth
A
(and the stars are dreaming)
B
the stars are dreaming
A
nobody owns the truth


|-------------|
|-------------|
|-------------|
|-----------2-|
|-------3-5---|
|-0-3-5-------|

All the greats of heaven greets you
all the gates will open for you
A
And great river phoenix
what a great name to put on a boy

Riff

Verse:

Ref:

Here it's only acoustic with the chords: E G A D A D G5

All the greats of heaven greets you
all the gates will open for you
all the faces celebrates you

E
Turtle Doves
                              G
Everybody's cool with the new rules
---------------------------------------------
Comments & Corrections are more than welcome!
Related for River Phoenix tab