Song name
# A B C D E F G H I J K L M N O P Q R S T U V W X Y Z

Mortician - Zombie Apocalypse tab

Tabbed by Mikkel **4/5/2012**


Artist: Mortician
Album: Zombie Apocalypse (1998)
Song: Zombie Apocalypse

Tuning: A standard (Drop A works too,
Standard: A, D, G, C, Fb, A
Drop: A, E, A, D, Gb, B

NOTE: I'll tab this as Drop tuned 'cause I'm in Drop A.

Main riff:
|1|------------------------------------------------------------||
|2|------------------------------------------------------------||
|3|------------------------------------------------------------||
|4|------------------------------------------------------------||
|5|----0-0-0-0-0----0-0-0-0-0----0-0-0-0-0-0-4-3-2~~~-3-2-1~~~-||
|6|-1b-0-0-0-0-0-1b-0-0-0-0-0-1b-0-0-0-0-0-0-4-3-2~~~-3-2-1~~~-||

Transition riff
|1|-------------||
|2|-------------||
|3|-------------||
|4|-------------||
|5|-------------||
|6|-0wd~~~~~~~~-||

Fast riff (Tremolo pick all the notes
|1|-----|-------|-----|-------||
|2|-----|-------|-----|-------||
|3|-----|-------|-----|-------||
|4|-----|-------|-----|-------||
|5|-----|-------|-----|-------||
|6|-2-0-|-4-3-2-|-2-0-|-4-3-0-||

Version 2 (Do the same thing but instead of tremolo picking just make it chords)

|1|-----|-------|-----|-------||
|2|-----|-------|-----|-------||
|3|-----|-------|-----|-------||
|4|-----|-------|-----|-------||
|5|-2-0-|-4-3-2-|-2-0-|-4-3-0-||
|6|-2-0-|-4-3-2-|-2-0-|-4-3-0-||

Then play the main riff and then the transition riff. And that's all, that's the entire song.

Legend:
b  = Bend said note.
wd = Push your whammy bar down.
~  = Hold said note.
Tap to rate this tab
# A B C D E F G H I J K L M N O P Q R S T U V W X Y Z