Song name
# A B C D E F G H I J K L M N O P Q R S T U V W X Y Z

Mortifera - Ciel Brouielle tab

#------------------------------------PLEASE  NOTE-----------------------------------------------#
#This file is the author's own work and represents their interpretation of the #
#song. You may only use this file for private study, scholarship, or research#
#-----------------------------------------------------------------------------------------------#

Band   Mortifera 
Album: Vastiia Tenebrd Mortifera
Song: Ciel Brouielle

Transcribed By: Elathen
Email:         ningalia87@yahoo.com

Copyright (c)  GoatowaRex
Version 1.0 - 9/1/2008

Tuning E A D G B E


Riff 1                     Fig.1       Fig.2
|-------------------------|------------|-------------------------|
|-------------------------|---555555---|-------------------------|
|--666-6--777-77---666-6--|---444444---|--44444--6666---44444----|
|--555-5--777-77---555-5--|------------|--55555--5555---55555----| 
|-------------------------|------------|-------------------------|
|-------------------------|------------|-------------------------|

Riff 2                      
|--------------------------|--------------------------|
|--77777---55555----55555--|--------------------------| 
|--77777---66666----55555--|--66-77-66-444------------| 
|--------------------------|--55-55-55-555------------|  
|--------------------------|--------------------------|
|--------------------------|--------------------------|

Play Riff 1 x 3

Play Riff 2 x 2 

Riff 3 
|-----------------------------------------------------|
|--888888--77777----10101010---7777----5555555--------| 
|--777777--77777----7777-------7777----7777777--------| 
|-----------------------------------------------------|  
|-----------------------------------------------------|
|-----------------------------------------------------|

Riff 4
|-----------------|----------------------------|
|-----------------|--777777--5555555-----------| 
|--66666--77777---|--666666--5555555-----------| 
|--55555--77777---|----------------------------|  
|-----------------|----------------------------|
|-----------------|----------------------------|

Play Riff 1 x 4 w/ Some variations

Play Riff 4 x 4 

Riff 5 (Lead) 
|------------6------------------------|
|-777-7777------77777---5555-5555-----| 
|-------------------------------------| 
|-------------------------------------|  
|-------------------------------------|
|-------------------------------------|

Play Riff 3 x 7 - End. 
Tap to rate this tab
# A B C D E F G H I J K L M N O P Q R S T U V W X Y Z