Mortification - Ride The Light tab

Mortification  Ride The Light
Tuning: Drop D (D A D G B E)
Tabs written down by me (Micha Fust)

Main Riff:

E|-------------------------------------------------------------------------|
B|-------------------------------------------------------------------------|
G|-------------------------------------------------------------------------|
D|------------------------------------------------------9-7-5-5s7----------|
A|-0----0----7-9~--0----0-------0^------0----0----7-9~--7-5-3-3s5----------|
D|-0-00-0-00-7-9~--0-00-0-00-----5^-3^--0-00-0-00-7-9~---------------------|
   m mm m mm       m mm m mm            m mm m mm

Pre Riff:

E|-------------------------------------------------------------------------|
B|-------------------------------------------------------------------------|
G|-------------------------------------------------------------------------|
D|-------------------------------------------------------------------------|
A|--9----9----9----9-12------12------12------7s8---------------------------|
D|--9-99-9-99-9-99-9-12-1212-12-1212-12-1212-7s8---------------------------|
      Mm   mm   mm       mm      mm      mm

Solo/Bridge Riff:

B|-------------------------------------------------------------------------|
G|------3------4------3----------------------------------------------------|
D|------3------4------3----8-8-6---6---------------------------------------|
A|-------------------------------8---8^------------------------------------|
E|-5------5------5---------------------------------------------------------|
B|-5-55---5-55---5-55------------------------------------------------------|
     Mm     mm     mm


Enjoy! :)
Tap to rate this tab
 
# A B C D E F G H I J K L M N O P Q R S T U V W X Y Z