Song name
# A B C D E F G H I J K L M N O P Q R S T U V W X Y Z

Mortification - 3 Of A Kind tab

Intro:

-|--------------------------------------|
-|--------------------------------------|
-|--------------------------------------|
-|------7-7-8-8-8-8-7-7-7-7-7-7-7-------|
-|------5-7-6-6-6-6-5-5-5-5-5-5-5-------|
-|--------------------------------------|

2 verse

-|---------------------------------------|
-|---------------------------------------|
-|---------------------------------------|
-|------5-4-4-4--------------------------| x8
-|------3-2-2-2--------------------------|
-|---------------------------------------|

3 verse

-|-----------------------------------------+------------------------------|
-|-----------------------------------------+------------------------------|
-|-----------------------------------------+---2-2-2-2-2-2-2-2-2-2--------|
-|------7-7-7-7-5-5-5-5-3-3-3-3-4-4-4-4+---2-2-2-2-2-2-2-2-2-2------------|
-|------5-5-5-5-3-3-3-3-1-1-1-1-2-2-2-2+----------------------------------|
-|-----------------------------------------+------------------------------|


4 verse

-|--------------------------------|
-|--------------------------------|
-|--------------------------------|x4
-|---------------------7----------|
-|-----4-5-6-5-4-5-6-5------------|
-|-----4-5-6-5-4-5-6--------------|

Solo

-|-------------------------------------------+------|
-|-------------------------------------------+------|
-|-------------------------------------------+--5---|
-|-------5-5-6-6-5-5-6-6-5-5-6-6-5-5-6-6-+----------|
-|-------------------------------------------+------|
-|-------------------------------------------+------|
Tap to rate this tab
# A B C D E F G H I J K L M N O P Q R S T U V W X Y Z