Song name
# A B C D E F G H I J K L M N O P Q R S T U V W X Y Z

Morton - Sleeping King tab

1.---------------------------------------------------------|
2.---------------------------------------------------------|
3.---------------------------------------------------------|
4.---------------------------------------------------------|
5.-6---6-8-8-9-9-8-8---8---8---8-6-6-8-8-9---9-4-4-4---4-6-|
6.---------------------------------------------------------|

                                  3 veces y...
1.---------------------------------------|------------------|
2.---------------------------------------|------------------|
3.---------------------------------------|------------------|
4.---------------------------------------|------4-----------|
5.-6-8-8-9---9-8-8-8----8-6-8-9-9-8-8-8--|--6-6---6-8-6-----|
6.---------------------------------------|------------------|

    Listen to the wind,
1.---------------------------------------------------------|
2.---------------------------------------------------------|
3.---------------------------------------------------------|
4.-8-8---11-6-8-3--6---------------------------------------|
5.-6-6----9-4-6----4-6-6-8-8-9-9-8-8-8-8-6-6-8-8-9---------|
6.---------------------------------------------------------|


1.--------------------------------------------------------|
2.--------------------------------------------------------|
3.--------------------------------------------------------|
4.-8---11---11---11---10----------------------------------|
5.-6----9----9----9----8-4-6-4-6-6-8-8-9-9-8-8-8-8-6-6----|
6.--------------------------------------------------------|



1.-------------------------------------------------------|
2.-------------------------------------------------------|
3.-------------------------------------------------------|
4.-------------8---11---11---11---10-6---6-8-8-8---8-11--|
5.-8-8-9-9-8---6----9----9----9----8-4---4-6-6-6---6-9---|
6.-------------------------------------------------------|


1.-------------------------------------------------------|
2.-------------------------------------------------------|
3.-------------------------------------------------------|
4.-11---11-----------------------------------------------|
5.-9----9------------------------------------------------|
6.-------------------------------------------------------|

 (guitarra 1)
1.----------------------------------------------------|
2.----------------------------------------------------|
3.----------------------------------------------------|
4.-8---8-8-8---8---8---8-8-8---8---11---6---8---8-8-8-|
5.-6---6-6-6---6---6---6-6-6---6----9---4---6---6-6-6-|
6.----------------------------------------------------|


1.--------------------------------|
2.--------------------------------|
3.--------------------------------|
4.-8---8---8-8-8---8---4-4--------|
5.-6---6---6-6-6---6---2-2--------|
6.--------------------------------|


(guitarra2)
1.-------------------------------------------------------|
2.-------------------------------------------------------|
3.-------------------------------------------------------|
4.-------------------------------------------------------|
5.-8-8-10-10-11-11-10-10-10-10-8-8-10-10-11-11-10-8-10-8-|
6.-------------------------------------------------------|


1.-------------------------------------------------------|
2.-------------------------------------------------------|
3.-------------------------------------------------------|
4.-----------------------------------------------------9-|
5.-11-8-10-8-8-10-10-11-11-10-10-10-10-8-8-10-10-11-11---|
6.-------------------------------------------------------|

(Estribillo)
   When all your dreams are torn apart....
1.----------------------------------------------|
2.----------------------------------------------|
3.----------------------------------------------|
4.-8---11-4-3-8---11---8-8---8-8---8-8---8-6----|
5.-6----9-2---6----9---6-6---6-6---6-6---6-4----|
6.----------------------------------------------|


1.--------------------------------------|
2.--------------------------------------|
3.--------------------------------------|
4.--------------------------------------|
5.-6---6-6---6-6---6-6---6-6---6--------|
6.--------------------------------------|



   The pendulum returns,
1.---------------------------------------------|
2.---------------------------------------------|
3.---------------------------------------------|
4.-8-8---11-6-8-3--6-6-6-6---11---11---11---11-|
5.-6-6----9-4-6----4-4-4-4----9----9----9----9-|
6.---------------------------------------------|

1.-------------------------------|
2.-------------------------------|
3.-------------------------------|
4.-------------------------------|
5.-6-6-8-8-9-9-8-8-8-8-6-6-8-8-9-|
6.-------------------------------|

1.-----------------------------------------------------|
2.-----------------------------------------------------|
3.-----------------------------------------------------|
4.-8---11---11---11---10-------------------------------|
5.-6----9----9----9----8-4-6-4-6-6-8-8-9-9-8-8-8-8-6-6-|
6.-----------------------------------------------------|


1.------------------------------------------------------|
2.------------------------------------------------------|
3.------------------------------------------------------|
4.-------------8---11---11---11---10-6---6-8-8-8---8-11-|
5.-8-8-9-9-8---6----9----9----9----8-4---4-6-6-6---6-9--|
6.------------------------------------------------------|


1.------------------------------------------------------|
2.------------------------------------------------------|
3.------------------------------------------------------|
4.-11---11----------------------------------------------|
5.-9----9-----------------------------------------------|
6.------------------------------------------------------|

(estribillo)
   When all your dreams are torn apart
1.---------------------------------------------|
2.---------------------------------------------|
3.---------------------------------------------|
4.-8---11-4-3-8---11---8-8---8-8---8-8---8-6---|
5.-6----9-2---6----9---6-6---6-6---6-6---6-4---|
6.---------------------------------------------|
                                          2 veces
1.------------------------------------------------|
2.------------------------------------------------|
3.------------------------------------------------|
4.------------------------------------------4-6---|
5.-6-4-6-6-4-6---6-4-6-6-4-6---/6-4-6-6-4-6-------|
6.------------------------------------------------|


                                              2 veces
1.-----------------------------------------------------|
2.-----------------------------------------------------|
3.-----------------------------------------------------|
4.-------------4-4-------------0-1---------------4-----|
5.-6-4-6-6-4-6-----6-4-6-6-4-6-----6-4-6-6-4-6---2---4-|
6.---------------------------------------------------2-|



1.------------------------------------------------------11-|
2.----------------------------------------11---------------|
3.-------------8------------11-----------------------------|
4.---------------------------------------------------------|
5.-6-4-6-6-4-6---6-4-6-6-4-6---6-4-6-6-4-6---6-4-6-6-4-6---|
6.---------------------------------------------------------|

(solo)
1.--------------------------------------------------------|
2.---------9-7-6-----6-------4-------4-2-0----------------|
3.-8-10-11-------8-6---8-6-4---6-4-3-------4-3-1----------|
4.------------------------------------------------4-3-1---|
5.--------------------------------------------------------|
6.--------------------------------------------------------|



1.---------------------------------------------------------|
2.------------------------18-19-18-16----------------------|
3.---------------------20-------------15-------------------|
4.-----------------/20-------------------16-15-13-13-15-16-|
5.-4-2-1-------6-------------------------------------------|
6.-------4-2-1---------------------------------------------|

1.----------------------------18---------------------18---|
2.-------------------16-18-15----19-18-16---18-19-21------|
3.-16-13-15-13-15-16--------------------------------------|
4.--------------------------------------------------------|
5.--------------------------------------------------------|
6.--------------------------------------------------------|



   When all your dreams are torn apart
1.----------------------------------------------|
2.----------------------------------------------|
3.----------------------------------------------|
4.-8---11-4-3-8---11---8-8---8-8---8-8---8-6----|
5.-6----9-2---6----9---6-6---6-6---6-6---6-4----|
6.----------------------------------------------|

   There is a place for us to hide,
1.----------------------------------------------|
2.----------------------------------------------|
3.----------------------------------------------|
4.-8---11-4-3-8---11---8-8---8-8---8-8---8-6----|
5.-6----9-2---6----9---6-6---6-6---6-6---6-4----|
6.----------------------------------------------|



(guitarra 1)
1.----------------------------------------------|
2.----------------------------------------------|
3.----------------------------------------------|
4.-8---11-4-8---11---8-8---8-8---8-8---8-6------|
5.-6----9-2-6----9---6-6---6-6---6-6---6-4------|
6.----------------------------------------------|

(guitarra 2)
1.-----------------------------------------------|
2.-----------------------------------------------|
3.-----------------------------------------------|
4.-13-15-15-16-16-15----15----15---15-13-13-15---|
5.-------------------16----16---16---------------|
6.-----------------------------------------------|

1.-----------------------------------------|
2.-----------------------------------------|
3.-----------------------------------------|
4.-15-16-16-15----15----18-16-15-----------|
5.-------------16----16----------18--------|
6.-----------------------------------------|


www.maxmorton.com


                                  por: perchintabs.blogspot.com
Tap to rate this tab
# A B C D E F G H I J K L M N O P Q R S T U V W X Y Z