Song name
# A B C D E F G H I J K L M N O P Q R S T U V W X Y Z

Most Precious Blood - Shark Ethic tab

Most Precious Blood
01; Shark Ethic
Merciless(2005)


Since this is a MPB song, almost every single note is palmmuted, figure out strumming 
yourself, it's quite easy..

F|10/9\12/7/--|
C|------------|
G|-8/7\10/5/--| x 2
C|------------|


F|10101010-9999-12121212-7777-----|
C|10101010-9999-12121212-77770000-| x4
G|8-8-8-8--7777-10101010-55550000-|
C|---------------------------0000-|


F|10101010--9999----12121212--7777-----|
C|10101010--9999--0-12121212--7777--0--| x2
G|8-8-8-8---7777--0-10101010--5555--0--|
C|--------00----0000--------00----0000-|


F|-------------------------------------|
C|10101010--9999--0-12121212--7777--0--|
G|10101010--9999--0-12121212--7777--0--| x2
C|8-8-8-8-0077770000101010100055550000-|


F|-----------||----------------|
C|-----------||----------0-3-5-| x2
G|-----------||----------0-3-5-|
C|--12/0~----||--0~------0-3-5-|


F|---------------------------|
C|00-000-00-000-00-000-00-0--| x4
G|00-000-00-000-00-000-00-0--|
C|00-000-00-000-00-000-00-035|


F|------------|
C|------------|
G|------8-----|
C|--6~---6-0~-|


F|------------------------|
C|---------00000000000000-|
G|------8--00000000000000-|
C|--6~---6-00000000000000-|


F|----------------------------|
C|-------------00000000000000-| x2
G|----------8--00000000000000-|
C|--666666---6-00000000000000-|


F|---------------------------|
C|00-000-00-000-00-000-00-0--| x4
G|00-000-00-000-00-000-00-0--|
C|00-000-00-000-00-000-00-035|


F|------------|
C|------------|
G|------8-----|
C|--6~---6-0~-|


F|------------------------|
C|---------00000000000000-|
G|------8--00000000000000-|
C|--6~---6-00000000000000-|

F|----------------------------|
C|-------------00000000000000-| x3
G|----------8--00000000000000-|
C|--666666---6-00000000000000-|


F|----------------|
C|----------------|
G|----------8-----|
C|--666666---6-0~-|


F|10/9\12/7/--|
C|------------|
G|-8/7\10/5/--| x 2
C|------------|


F|10101010--9999----12121212--7777-----|
C|10101010--9999--0-12121212--7777--0--| x2
G|8-8-8-8---7777--0-10101010--5555--0--|
C|--------00----0000--------00----0000-|


F|-------------------------------------|
C|10101010--9999--0-12121212--7777--0--|
G|10101010--9999--0-12121212--7777--0--| x2
C|8-8-8-8-0077770000101010100055550000-|
Tap to rate this tab
# A B C D E F G H I J K L M N O P Q R S T U V W X Y Z