Song name
# A B C D E F G H I J K L M N O P Q R S T U V W X Y Z

Mosteller - Like Jesus tab

-------------------------------------------------------------------------------
                             Like Jesus - Mosteller/Carrollton
-------------------------------------------------------------------------------
Tabbed by:Chris Evans
E-mail:risingdeathx@gmail.com

Tuning:standard
Capo 5th fret

There are two parts to this song.

The first sequence of chords are:
Em G C
this is played for the chorus.  The chords for the second sequence is:
Em D C G

The finger picking pattern goes like this with the capo on 5th fret.
    Em                 G                C
e|---------------------------------------------------------------------------|
B|---------------------------------------------------------------------------|
G|----0-------0-------4-------4--------9---------9---------9-----------------|2x
D|---------------------------------------------------------------------------|
A|--2---2---2---2---5---5---5---5---10---10---10---10---10---10--------------|
E|0-------0-------3-------3-------8---------8---------8----------------------|

second pattern is:                     before chorus it's:
      Em      D       C      G
e|----------------------------------|-----------------------------------------|
B|----8-------7-------5-------3~~~--|-----------------------------------------|
G|--------------------------------3X|----4-------4--------9---------9---------|
D|--9---9---7---7---5---5---4-------|-----------------------------------------|1x
A|7-------5-------3-------2---------|--5---5---5---5---10---10---10---10------|
E|----------------------------------|3-------3-------8---------8--------------|
Em        D         C          G
who spent for you and you be spent
Em        D         C          G
Who sent for truth and for truth be sent
Em        D         C           G
who reach out and a hand be lent.
G            C
lord here i am

    Em    G            C
like jesus teach me to humble all i am
    Em    G            C
like jesus teach me to give and give again
    Em    G            C
like jesus teach me to die and truely and live
     Em   G     C
like jesus, like jesus

Second pattern
Em         D             C            G
harvest is ready but the workers are few
Em         D             C           G
raise your church and power us in truth
Em         D             C            G
led by your spirit lord we are running to you
  G          C
and here we are


Chorus

                   Em
  We are not our own
                 D
  we are not alone
                   Em
  we are not our own
                    G
  we belong to you X2
Em
yeah yeah yeah

chorus 2x

oh like jesus

oh like jesus

oh

Email me or comment any mistakes and rate :) first tab
Tap to rate this tab
# A B C D E F G H I J K L M N O P Q R S T U V W X Y Z