Song name
# A B C D E F G H I J K L M N O P Q R S T U V W X Y Z

Mostly Sunny - More Than Anyone Else tab

  -----------------------------------------------------------------------------
                                           MORE THAN ANYONE ELSE - by Mostly Sunny
  -----------------------------------------------------------------------------



Heard this song on that Redvines Commercial. Pretty easy song.
Facebook page for Mostly Sunny:  https://www.facebook.com/mostlysunnymusic




Tabbed by: Matheyu
E-mail:  amchguitars@yahoo.com

Tuning: Standard




Intro:

Playing over the power chords


  D#5              A#3             C5
e|---------------------------------------------------------------------|
B|-----8-------8-------8-------8-------8-------8-------8-------8-------|
G|---8---8---8---8---8---8---8---8---8---8---8---8---8---8---8---8-----|
D|-8-------8-------8-------8-------8-------8-------8-------8-----------|
A|---------------------------------------------------------------------|
E|---------------------------------------------------------------------|



   G#5                             A#5
e|---------------------------------------------------------------------|
B|-----8-------8-------8-------8-------8-------8-------8-------8-------|
G|---8---8---8---8---8---8---8---8---8---8---8---8---8---8---8---8-----|
D|-8-------8-------8-------8-------8-------8-------8-------8-----------|
A|---------------------------------------------------------------------|
E|---------------------------------------------------------------------|



These Power Chords Play throughout the verses and chorus:



   D#5             A#3             C5
e|---------------------------------------------------------------------|
B|---------------------------------------------------------------------|
G|---------------------------------------------------------------------|
D|-8-8-8-8-8-8-8-8-8-8-8-8-8-8-8-8-5-5-5-5-5-5-5-5-5-5-5-5-5-5-5-5-----|
A|-6-6-6-6-6-6-6-6-5-5-5-5-5-5-5-5-3-3-3-3-3-3-3-3-3-3-3-3-3-3-3-3-----|
E|---------------------------------------------------------------------|


   G#5                             A#5
e|---------------------------------------------------------------------|
B|---------------------------------------------------------------------|
G|---------------------------------------------------------------------|
D|---------------------------------------------------------------------|
A|-6-6-6-6-6-6-6-6-6-6-6-6-6-6-6-6-8-8-8-8-8-8-8-8-8-8-8-8-8-8-8-8-----|
E|-4-4-4-4-4-4-4-4-4-4-4-4-4-4-4-4-6-6-6-6-6-6-6-6-6-6-6-6-6-6-6-6-----|


SOLO:

   D#5             A#3             C5
e|----------------------------------------------------------------------|
B|-/11/9----8-8/-------------------/3-4---------------------------------|
G|----------------------------------------------------------------------|
D|----------------------------------------------------------------------|
A|----------------------------------------------------------------------|
E|----------------------------------------------------------------------|


   G#5                             A#5
e|---------------------------------------------------------------------|
B|-/11/9----8-8/-------------------11B---------------------------------|
G|---------------------------------------------------------------------|
D|---------------------------------------------------------------------|
A|---------------------------------------------------------------------|
E|---------------------------------------------------------------------|

VERSE:

D#5    A#3        C5
I came out of the pourin rain
           G#5
To try and stop this train
      A#5
Wreck on my brain... Wreck
    D#5    A#3           C5
And I left you. Before I knew you could
G#5
Thought you should
       A#5
Turned out you would


CHORUS:

    D#5    A#3           C5
But I love you more than anyone else
         G#5
It's not hard to tell
    A#5
You know me well
D#5               A#3
Once was mine but now define
          C5
A certain kind of loss
      G#5
And I know the cost
   A#5
Of things I've lost
    D#5    A#3           C5
But I love you more than anyone else
         G#5
It's not hard to tell
    A#5
You know me well
    D#5    A#            C5
Yes I love you more than anyone else
         G#5
It's not hard to tell
    A#5
You know me well



BRIDGE:

      F5
And I know my life
        G#5
This is no surprise
      F5                 G#5 A#5
Yes I know my right to believe


SOLO:

D#5   A#3    C5

G#5          A#5


VERSE:

D#5    A#3        C5
I came out of the pourin' rain
           G#5
To try and stop this train
      A#5
Wreck on my brain... Wreck


CHORUS:

    D#5    A#3           C5
And I love you more than anyone else
         G#5
It's not hard to tell
    A#5
You know me well
    D#5    A#3           C5
Yes I love you more than anyone else
         G#5
It's not hard to tell
    A#5
You know me well
    D#5    A#3            C5
Yes I love you, more than anyone else
         G#5
It's not hard to tell
         A#5
When you know me well
Tap to rate this tab
# A B C D E F G H I J K L M N O P Q R S T U V W X Y Z