Song name
# A B C D E F G H I J K L M N O P Q R S T U V W X Y Z

Mostruo - El Capitan tab

RIFF
Guitarra I (en la intro sin la guitarra 2)
---------------|---------------|---------------|---------------| 
-0~--0---0~--0-|-0~--0---0~--0-|-0~--0---0~--0-|-0~--0---0~--0-|
----0-0-----0-0|----0-0-----0-0|----0-0-----0-0|----0-0-----0-0|
1-------2------|1-------2------|1-------2------|1-------2------|
---------------|---------------|---------------|---------------|
---------------|---------------|---------------|---------------|

Guitarra II
---------------|---------------|---------------|---------------| 
---------------|---------------|---------------|---------------|
2-22-4-22-2-22-|2p0~-2-22-4-22-|2-22-2p0~-2-22-|4-22-2-22-2p0--|
---------------|---------------|---------------|---------------|
---------------|---------------|---------------|---------------|
---------------|---------------|---------------|---------------|

Bajo para Riff 
---------------|---------------|---------------|---------------|
---------------|---------------|---------------|---------------|
---------------|---------------|---------------|---------------|
765-55-3-------|765-55-3-------|765-55-3-------|765-55-3-------|

1° estrofa

Si                           Lam
Cuando estoy solo refrescandome 
LA# LAm   LA#  LAm     LA# LAm     Si Lam
todas las cosas que no pude hacer 

2° estrofa
LA#
quisiera estar en el chaitén 
Lam
esperando el amanecer 
SI
pensando adonde mas 
LAm
voy a faltar despues 

RIFF ( solo con guitarra I con el bajo)

(1° estrofa)
Cuando proyecto lo que quiero ser, 
cuando no alcanza pintar la pared, 

(2° estrofa)
quisiera hablarle a un holandes 
y preguntarle por el rey 
y lamentar aquel mundial 
con johan cruyff 

RIFF( con Guitarra II mas fuerte q la I)

(1° estrofa)
cuando me visto para simular 
que soy el mismo del 96 

(2° estrofa)
quisiera poder enfermar 
a un chico de alta sociedad 
con lo dificil que resulta para él 
no ser normal. 

Cuando despierto sin opción a ser 
un detective de la humanidad, 

quisiera ser un esquimal 
pensando en echarse a descifrar 
cuando tarda el cuerpo en congelar. 

Cuando el rencor se apodera de mi 
y todos mueren a mi alrededor 

quisiera ser un capitán, 
vagando por la inmensidad 
dudando si quedarme alla 
o si volver.
Tap to rate this tab
# A B C D E F G H I J K L M N O P Q R S T U V W X Y Z