Song name
# A B C D E F G H I J K L M N O P Q R S T U V W X Y Z

Motel - Lejos Estamos Mejor chords

Highlighted       Show chord diagrams
A* A Asus A
Em Em7
D D* D D D* D
A* A Asus A

A              Em   Em7
Hoy rompo en llanto
      D D*  D             A* A Asus A
Pues se que todo esta decidido
A          Em   Em7
Te quiero tanto
     D D*  D             A* A Asus A
Pero no es suficiente sentirlo
F#m                 E                    D D*  D D D* D
Hemos intentado seguir por seguir sin reconocer
C#m
Que ya no hay mas por hacer
F#m                  E                   D D*  D D D* D
Y hemos aceptado sufrir por sufrir sin querer creer
E                        A
Que vida después de romper
                        Em   Em7
Y AUNQUE NO SOPORTE PERDERTE
D D* D               A* A  E
ES INEVITABLE NUESTRA SEPARACION
A                            Em   Em7
Y ESTE NO ES MOMENTO PARA ENTENDER
D D* D                      A*  A  E      A*
SOLO HAY QUE ACEPTARLO PUES LEJOS ESTAMOS MEJOR

A Asus A
Em Em7
D D* D D D* D
A* A Asus A

A         Em  Em7
De aquel amor
D D*  D                    A* A Asus A
Tendremos solamente el recuerdo
A         Em Em7
Luna sin Sol
D D*   D                    A* A Asus
Jardin que se ha quedado desierto
F#m                E                     D D*  D D D* D
En ningún momento deje de sentir, de sentirte a ti
C#m
Podemos sobrevivir
F#m                  E                         D D*  D  D D* D
Este rompimiento se debe cumplir porque hay que seguir
E                        A
Que vida después de partir

                       Em  Em7
Y AUNQUE NO SOPORTE PERDERTE
D D*   D              A5 A   E
ES INEVITABLE NUESTRA SEPARACION
A                            Em     Em7
Y ESTE NO ES MOMENTO PARA ENTENDER
D D*  D                      A*  A  E       A5
SOLO HAY QUE ACEPTARLO PUES LEJOS ESTAMOS MEJOR

e-9--------9--------9--------7--------7--------7------|
B---10-------10-------10-------9--------9--------9----|
G------11-------11-------11------9--------9--------9--|
D-----------------------------------------------------|
A-----------------------------------------------------|
E-----------------------------------------------------|

e-10--------10--------10--------9--------9------------|
B----10--------10-------10-------10-------12-12-12-10-|
G-------11--------11-------11-------11----------------|
D-----------------------------------------------------|
A-----------------------------------------------------|
E-----------------------------------------------------|

e-9--------9--------9--------7-------7-------7--------|
B---10-------10-------10-------9-------9-------9------|
G------11-------11-------11-------9-------9------9----|
D-----------------------------------------------------|
A-----------------------------------------------------|
E-----------------------------------------------------|

e-10--------10--------10--------10--------10-12/10-10-|
B----10--------10--------10--------10-----------------|
G-------11--------11--------11--------10--------------|
D-----------------------------------------------------|
A-----------------------------------------------------|
E-----------------------------------------------------|

A                       Em    Em7
Y AUNQUE NO SOPORTE PERDERTE
D D*   D               A* A  E
ES INEVITABLE NUESTRA SEPARACION
A                            Em     Em7
Y ESTE NO ES MOMENTO PARA ENTENDER
D D*   D                      A*  A  E       A* A
SOLO HAY QUE ACEPTARLO PUES LEJOS ESTAMOS MEJOR

Em Em7 A* A Asus

A        --      A
LEJOS ESTAMOS MEJOR
Tap to rate this tab
 
# A B C D E F G H I J K L M N O P Q R S T U V W X Y Z