Song name
# A B C D E F G H I J K L M N O P Q R S T U V W X Y Z

Mother Love Bone - Stardog Champion tab

Help us improve GuitareTab! Take a short survey!
#----------------------------------PLEASE NOTE--------------------------------#
#This file is the author's own work and represents their interpretation of the#
#song. You may only use this file for private study, scholarship, or research.#
#-----------------------------------------------------------------------------#
#-- File created with Instab - http://www.pconline.com/~smcarey/instab.html --#
#-----------------------------------------------------------------------------#

Author/Artist: Mother Love Bone
Title: Star Dog Champion
Album: Apple
Transcribed by: Thiago Oliveira da Costa with lots of help from Evan Cowan
Email: MikeMcCready@hotmail.com

Dropped D one Guitar. 
I Don?t know if both guitars are Dropped D or if it?s just one.
Works Both ways
Solo is missing! Helps and suggestions are always welcome!!!!

The riff * is Evan Cowan?s and so the idea of the Dropped d guitar

Intro
-|----------------------------------------------------------------------------
-|----------------------------------------------------------------------------
-|--5-/-7---7---7---5---10---5---5---7---5---7--------------------------------
-|--X-/-X---X---X---X----X---X---X---X---X---X--------------------------------
-|--3-/-5---5---5---3----8---3---3---5---3---5--------------------------------
-|----------------------------------------------------------------------------
One guitar does this

-|----------------------------------------------------------------------------
-|----------------------------------------------------------------------------
-|--5-/-7---7---7---5---------------------------------------------------------
-|--X-/-X---X---X---X---------------------------------------------------------
-|--3-/-5---5---5---3---------------------------------------------------------
-|----------------------------------------------------------------------------
While the other does this 
 
Harmonics missing ????

*
-|----------------------------------------------------------------------------
-|----------------------------------------------------------------------------
-|--------5-------------------------------------------------------------------
-|-5h7------6-5---------------------------------------------------------------
-|---------------------8-5----------------------------------------------------
-|----------------------------------------------------------------------------
Then (All these riffs are pretty close, so just look to this and jam around!).

Verse
-|----------------------------------------------------------------------------
-|----------------------------------------------------------------------------
-|--5-/-7---7---7---5---7--10---9---7-----------------------------------------
-|--X-/-X---X---X---X---x---X---X---X-----------------------------------------
-|--3-/-5---5---5---3---5---8---7---5-----------------------------------------
-|----------------------------------------------------------------------------
One guitar does this

-|----------------------------------------------------------------------------
-|----------------------------------------------------------------------------
-|--5-/-7---7---7---5---7-----------------------------------------------------
-|--X-/-X---X---X---X---x-----------------------------------------------------
-|--3-/-5---5---5---3---5-----------------------------------------------------
-|----------------------------------------------------------------------------
While the other does this

-|----------------------------------------------------------------------------
-|----------------------------------------------------------------------------
-|--------5-------------------------------------------------------------------
-|-5h7------6-5---------------------------------------------------------------
-|---------------------8-5----------------------------------------------------
-|----------------------------------------------------------------------------
Then.

Chorus
Dropped D
-|----------------------------------------------------------------------------
-|----------------------------------------------------------------------------
-|----------------------------------------------------------------------------
-|--3---5-/-7---7---7---5---3-/-5---5---5---3---0-----------------------------
-|--3---5-/-7---7---7---5---3-/-5---5---5---3---0-----------------------------
-|--3---5-/-7---7---7---5---3-/-5---5---5---3---0-----------------------------

-|----------------------------------------------------------------------------
-|----------------------------------------------------------------------------
-|----------------------------------------------------------------------------
-|--3---5-/-7---7---7---5---3-/-5---5---5---3---0-----------------------------
-|--3---5-/-7---7---7---5---3-/-5---5---5---3---0-----------------------------
-|--3---5-/-7---7---7---5---3-/-5---5---5---3---0-----------------------------
"I?m a stardog champion"

Standard
-|----------------------------------------------------------------------------
-|----------------------------------------------------------------------------
-|----------------------------------------------7-----------------------------
-|--3---5-/-7---7---7---5---3-/-5---5---5---3---7-----------------------------
-|--3---5-/-7---7---7---5---3-/-5---5---5---3---5-----------------------------
-|--1---3-/-5---5---5---3---1-/-3---3---3---1---------------------------------

-|----------------------------------------------------------------------------
-|----------------------------------------------------------------------------
-|----------------------------------------------7-----------------------------
-|--3---5-/-7---7---7---5---3-/-5---5---5---3---7-----------------------------
-|--3---5-/-7---7---7---5---3-/-5---5---5---3---5-----------------------------
-|--1---3-/-5---5---5---3---1-/-3---3---3---1---------------------------------
"I?m a stardog champion"

Verse
-|----------------------------------------------------------------------------
-|----------------------------------------------------------------------------
-|--5-/-7---7---7---5---7-----------------------------------------------------
-|--X-/-X---X---X---X---x-----------------------------------------------------
-|--3-/-5---5---5---3---5-----------------------------------------------------
-|----------------------------------------------------------------------------

-|----------------------------------------------------------------------------
-|----------------------------------------------------------------------------
-|--5-/-7---7---7---5---10---5---5---7---5---7--------------------------------
-|--X-/-X---X---X---X----X---X---X---X---X---X--------------------------------
-|--3-/-5---5---5---3----8---3---3---5---3---5--------------------------------
-|----------------------------------------------------------------------------

-|----------------------------------------------------------------------------
-|----------------------------------------------------------------------------
-|--------5-------------------------------------------------------------------
-|-5h7------6-5---------------------------------------------------------------
-|---------------------8-5----------------------------------------------------
-|----------------------------------------------------------------------------
Then.

Chorus
Dropped D
-|----------------------------------------------------------------------------
-|----------------------------------------------------------------------------
-|----------------------------------------------------------------------------
-|--3---3---5---5-/-7---7---7---5---3-/-5---5---5---3---0---------------------
-|--3---3---5---5-/-7---7---7---5---3-/-5---5---5---3---0------12-\-0---------
-|--3---3---5---5-/-7---7---7---5---3-/-5---5---5---3---0---------------------

-|----------------------------------------------------------------------------
-|----------------------------------------------------------------------------
-|----------------------------------------------------------------------------
-|--3---3---5---5-/-7---7---7---5---0-----------------------------------------
-|--3---3---5---5-/-7---7---7---5---0-----------------------------------------
-|--3---3---5---5-/-7---7---7---5---0-----------------------------------------
"I?m a stardog Champion!!"

-|----------------------------------------------------------------------------
-|----------------------------------------------------------------------------
-|----------------------------------------------------------------------------
-|--3---3---5---5-/-7---7---7---5---0-----------------------------------------
-|--3---3---5---5-/-7---7---7---5---0-----------------------------------------
-|--3---3---5---5-/-7---7---7---5---0-----------------------------------------
"I?m a stardog Champion!!"

Standard
-|----------------------------------------------------------------------------
-|----------------------------------------------------------------------------
-|------------------------------------------------------7---------------------
-|--3---3---5---5-/-7---7---7---5---3-/-5---5---5---3---7---------------------
-|--3---3---5---5-/-7---7---7---5---3-/-5---5---5---3---5------12-\-0---------
-|--1---1---3---3-/-5---5---5---3---1-/-3---3---3---1-------------------------

-|----------------------------------------------------------------------------
-|----------------------------------------------------------------------------
-|----------------------------------7-----------------------------------------
-|--3---3---5---5-/-7---7---7---5---7-----------------------------------------
-|--3---3---5---5-/-7---7---7---5---5-----------------------------------------
-|--1---1---3---3-/-5---5---5---3---------------------------------------------
"I?m a stardog Champion!!"

-|----------------------------------------------------------------------------
-|----------------------------------------------------------------------------
-|----------------------------------7-----------------------------------------
-|--3---3---5---5-/-7---7---7---5---7-----------------------------------------
-|--3---3---5---5-/-7---7---7---5---5-----------------------------------------
-|--1---1---3---3-/-5---5---5---3---------------------------------------------
"I?m a stardog Champion!!"

Bridge  
-|---------------------------------------------------------------------------- }
-|---------------------------------------------------------------------------- }
-|--5-/-7---7---7---5----10---9---7------------------------------------------- }
-|--X-/-X---X---X---X-----X---X---X------------------------------------------- }
-|--3-/-5---5---5---3-----8---7---5------------------------------------------- }
-|---------------------------------------------------------------------------- }
2x THE FIRST TIME than once THE SECOND	        		               } 2x
									       }		
-|---------------------------------------------------------------------------- } 
-|---------------------------------------------------------------------------- }
-|--5-/-7---7---7---5----10---12---7-------------------------------------------} 
-|--X-/-X---X---X---X-----X----X---X------------------------------------------ }
-|--3-/-5---5---5---3-----8---10---5------------------------------------------ }
-|---------------------------------------------------------------------------- }
once AND ONCE. 

-|----------------------------------------------------------------------------
-|----------------------------------------------------------------------------
-|--5-/-7---7---7--5---5---8---8---8---7---7---7------------------------------
-|--X-/-X---X---X--x---x---X---x---X---X---X---x------------------------------
-|--3-/-5---5---5--3---3---6---6---6---5---5---5------------------------------
-|----------------------------------------------------------------------------
This (Not 100% right but it?s almost this) with solo till...

-|----------------------------------------------------------------------------
-|----------------------------------------------------------------------------
-|--------5-------------------------------------------------------------------
-|-5h7----5-6-5---------------------------------------------------------------
-|---------------------8-5----------------------------------------------------
-|----------------------------------------------------------------------------

Dropped D
-|----------------------------------------------------------------------------
-|----------------------------------------------------------------------------
-|----------------------------------------------------------------------------
-|--3---3---5---5-/-7---7---7---5---0-----------------------------------------
-|--3---3---5---5-/-7---7---7---5---0-----------------------------------------
-|--3---3---5---5-/-7---7---7---5---0-----------------------------------------
I?m a stardog Champion!!"...... till "I?m ... down"

Standard
-|----------------------------------------------------------------------------
-|----------------------------------------------------------------------------
-|----------------------------------7-----------------------------------------
-|--3---3---5---5-/-7---7---7---5---7-----------------------------------------
-|--3---3---5---5-/-7---7---7---5---5-----------------------------------------
-|--1---1---3---3-/-5---5---5---3---------------------------------------------
I?m a stardog Champion!!"...... till "I?m ... down"

Then the end "Na na na na!!!"
-|--5--5--5--5--5--5--5--5----8---8---8---8----10--10--10--10-----------------
-|--5--5--5--5--5--5--5--5----8--10--10--10----10--10--10--10-----------------
-|--7--7--7--7--7--7--7--7----9--10--10--10----12--12--12--12-----------------
-|--7--7--7--7--7--7--7--7----9--10--10--10----12--12--12--12-----------------
-|--5--5--5--5--5--5--5--5----8---8---8---8----10--10--10--10-----------------
-|----------------------------------------------------------------------------

or

-|--2--2--2--2--2--2--2--2----1--1--1--1-----3--3--3--3-----------------------
-|--3--3--3--3--3--3--3--3----1--1--1--1-----3--3--3--3-----------------------
-|--2--2--2--2--2--2--2--2----2--2--2--2-----0--0--0--0-----------------------
-|--0--0--0--0--0--0--0--0----3--3--3--3-----0--0--0--0-----------------------
-|----------------------------3--3--3--3-----2--2--2--2-----------------------
-|----------------------------------------------------------------------------

OR 

-|--2--2--2--2--2--2--2--2----5--5--5--5-----7--7--7--7-----------------------
-|--3--3--3--3--3--3--3--3----6--6--6--6-----8--8--8--8-----------------------
-|--2--2--2--2--2--2--2--2----5--5--5--5-----7--7--7--7-----------------------
-|--0--0--0--0--0--0--0--0----3--3--3--3-----5--5--5--5-----------------------
-|----------------------------------------------------------------------------
-|----------------------------------------------------------------------------

And the other
-|----------------------------------------------------------------------------
-|---3---3-------3---3--------6---6--------8---8------------------------------
-|-2---2---2---2---2---2----5---5---5----7---7---7----------------------------
-|----------------------------------------------------------------------------
-|----------------------------------------------------------------------------
-|----------------------------------------------------------------------------

-|----------------------------------------------------------------------------
-|---3----3-------------------------------------------------------------------
-|-2---2--2----5h7--5v---7h9--7v\---------------------------------------------
-|--------0-------------------------------------------------------------------
-|----------------------------------------------------------------------------
-|----------------------------------------------------------------------------
I know this is not correct or it?s not 100% but i liked!!!
Related for Stardog Champion tab